Band: Creed
Song: Hide
CD: Weathered
Tabbed by: Nick
Tuning: E,A,D,G


Intro: play this at 0:11
G/-------------------------|
D/-------------------------|play this a
A/-------------------------|couple times.
E/-6--6--6-6--6--6--6--6---|


Verse: start playin at 0:23                          play this the last time.
G/---------------------------------------------|-----------------------------------|
D/---------------------------------------------|-----------------------------------|
A/----------------------------1---1--1--1---1--|---------------------6--6--6--6--6-|
E/-3---3--3---1---1--1----1--------------------|-3---3--3---1---1--1---------------|


Chorus:
G/-------------------------------------------------------------------------------|
D/-------------------------------------------------------------------------------|
A/-----------------------------------------------------------------6--6-6-6--6---|
E/-6--6-6---6--6---6--5--5--5---5-5--5--3--3--3---1--1---1--1---1----------------|

play this note at the end of the chorus and hold it.
G/------|
D/------|
A/------|
E/--6---|


Break: play this at 2:28
G/--------------------------|
D/--------------------------|
A/--------------------------|
E/----6--------------------|

then play this at 3:05
G/----------------------------------------------|
D/----------------------------------------------|
A/------------------------6--6-6-6--6--6--6-----|
E/-3---3--3---1---1---1-------------------------|


Outro:
G/---------------------------|
D/---------------------------|play this a few times.
A/---------------------------|(its the same as the intro)
E/--6--6-6--6--6-6----6------|


thats all , if theres any questions or whatever email me
at: superman_5000@hotmail.com.
Show more