Band/Group - Creed
Album - Weathered
Song - Hide
Tabbed by - Korica
E-Mail - Therock4615@cs.com

NOTE: I plan to tab out every song on Weathered (Except My Sacrifice), so keep visting Mxtabs.net for updates!

This song can be played in standard tuning, but I have tabbed it in Drop-D tuning.

Tuning Low to High - DADG


Intro (Listen closely for rhythm)

	x4	           4th time ending
G-|---------------------------|-----------------------
D-|---------------------------|-----------------------
A-|--1-1--1-11---1--01--------|-----0-1--1/3----------
D-|---------------------------|-----------------------

Verse 1

G-|--------------------------------------------
D-|--------------------------------------------
A-|----------1--1--111-3-----------------------
D-|---5--3-------------------------------------

G-|-------------------------------------------
D-|-------------------------------------------
A-|---------------1---1-01--11h3/5------------     PAUSE
D-|---5-/-8--3-------------------------------

G-|---------------------------------------
D-|---------------------------------------
A-|-----------1--1--0111--3---------------
D-|---5---3-------------------------------

G-|-----------------------------------------
D-|-----------------------------------------
A-|-------------6-66-5h6-66-6h8-------------
D-|--5-/-8--3------------------------------

Chorus

G-|--------------------------------------------------
D-|--------------1h3p1-------------------------------
A-|--1--1-0111----------1-0-0-000-0h1p0--------------
D-|--------------------------------------------------

G-|-----------------------------------------------
D-|-----------------------------------------------
A-|----------------------6--6-655h6-6-66h8--------  PAUSE
D-|--5-/-8--3--3-3h5p3---------------------------

Verse 2

G-|--------------------------------------------
D-|--------------------------------------------
A-|----------1--1--111-3-----------------------
D-|---5--3-------------------------------------

G-|-------------------------------------------
D-|-------------------------------------------
A-|---------------1---1-01--11h3/5------------     PAUSE
D-|---5-/-8--3-------------------------------

G-|---------------------------------------
D-|---------------------------------------
A-|-----------1--1--0111--3---------------
D-|---5---3-------------------------------

G-|-----------------------------------------
D-|-----------------------------------------
A-|-------------6-66-5h6-66-6h8-------------
D-|--5-/-8--3------------------------------

Chorus

G-|-----------------------------------------
D-|-------------1h3p1-----------------------
A-|--1--1-0111----------1-0-0-000-0h1p0-----
D-|-----------------------------------------

G-|--------------------------------------------
D-|--------------------------------------------
A-|----------------------6--6-655h6-6-66h8-----   PAUSE
D-|--5-/-8--3--3-3h5p3------------------------


Bridge

G-|--------------------------------------------
D-|--------------------------------------------
A-|--1---*let-note-ring-out during guitar*-----
D-|--------------------------------------------

G-|----------------------------------------------
D-|----------------------------------------------
A-|--13-----------------------------------------
D-|----------6h8----6h8----6h8---6h8~---6h8----

G-|------------------------------------------
D-|------------------------------------------
A-|-------------------6-66-8-66-5-5h6-6h8----
D-|---5-/-8--3--3---------------------------

Last Chorus

G-|----------------------------------------
D-|-------------1h3p1----------------------
A-|--1--1-0111----------1-0-0-000-0h1p0----
D-|----------------------------------------

G-|---------------------------------------------
D-|---------------------------------------------
A-|-----------------------6--6-655h6-6-66h8-----  
D-|--5-/-8--3--3-3h5p3-------------------------

Outro (Again, listen for rhythm)

G-|-------------------
D-|-------------------
A-|-------------------     x6
D-|--1-1-111--1--01---

G-|---------------------
D-|------------1--------
A-|--1------------------
D-|---------------------
Show more