======================================================================
= Artist: Creed                                                      =
= Song: Higher                                                       =
= Album: Human Clay                                                  =
= Tabbed By: JackCadbury                          =
======================================================================

What up!! Now, here's Higher, hope you enjoy it...

Dropped D tuning (low to high DADGBE)

Keys:
P.M.       Palm Muting
N.D.       No Distortion
Dist.      Distortion
/          Slide
b          Bend

Rhy. Fig. 1                                                            (2nd to Coda)
E|---------------------------------------------------------------------------------|
B|---------------------------------------------------------------------------------|
G|-X-X-7-7-9-9-11-11-9-11-12-11-9-9-9-11-11-11-9-7-9-11-9-7-7-7-9-9-7-7-7-7--------|
D|-X-X-0-0-0-0-0--0--0-0--0-------7-7-7--7--7--7-7-7-7--7-7-5-5-5-5-5-5-5-5--------|
A|-X-X-0-0-0-0-0--0--0-0--0-------7-7-7--7--7--7-7-7-7--7-7-5-5-5-5-5-5-5-5--------|
D|--------------------------------7-------------------------5----------------------|
                            
                                                     Coda P.M_ _ _ _ _ _ _ __
E|----------------------------------------------|   E|-----------------------------|
B|----------------------------------------------|   B|-----------------------------|
G|-0-0-12-11-11-11-9-11-11-11-9-----------------|   G|-----------------------------|
D|-0-0-0--0--0--0--0-0--0--0--0-----------------|   D|-5-0-0-0-5-0-0-0-5-0-0-0-0---|
A|-0-0-0--0--0--0--0-0--0--0--0-----------------|   A|-5-0-0-0-5-0-0-0-5-0-0-0-0---|
D|-0-0-0--0--0--0--0-0--0--0--0-----------------|   D|-5-0-0-0-5-0-0-0-5-0-0-0-0---|

Intro play Rhy. Fig. 1 twice (2nd. time with distortion)

Rhy. Fig. 2
  N.D.
E|-2-2-2-2-2-2-2-2-2--5-5-5-5-5-5-5-5-5--------------------------------------------|
B|-3-3-3-3-3-3-3-3-3--8-8-8-8-8-8-8-8-8--------------------------------------------|
G|-2-2-2-2-2-2-2-2-2--7-7-7-7-7-7-7-7-7--------------------------------------------|
D|-0-0-0-0-0-0-0-0-0--5-5-5-5-5-5-5-5-5--------------------------------------------|
A|-0-0-0-0-0-0-0-0-0--5-5-5-5-5-5-5-5-5--------------------------------------------|
D|-0-0-0-0-0-0-0-0-0--5-5-5-5-5-5-5-5-5--------------------------------------------|

1st. Verse Play Rhy Fig. 2
       When dreaming I'm guided through another world 
       Time and time again 
       At sunrise I fight to stay asleep 
       'Cause I don't want to leave the comfort of this place
       'Cause there's a hunger, a longing to escape 
       From the life I live when I'm awake 

Rhy. Fig. 3
  P.M._ _ _ _ _ _ _ _ _ _ _ _ _ _ _ _       ...staaaaayyyyyyyy
E|--------------------------------------||-----------------------------------------|
B|--------------------------------------||-------20-20-20-20-20--------------------|
G|--------------------------------------||-------19-19-20-20-20--------------------|
D|--------------------------------------||-------17-17-17-17-17--------------------|
A|--2-2-2-2-2-2-2-2-3-3-3-3-3-3-3-3-3-3-||--/////17-17-17-17-17--------------------|
D|--2-2-2-2-2-2-2-2-3-3-3-3-3-3-3-3-3-3-||--/////17-17-17-17-17--------------------|

Pre-Chorus Play Rhy. Fig. 3 with Dist.
       So let's go there 
       Let's make our escape
       Come on, let's go there
       Let's ask can we stay? 

Rhy. Fig. 4

E|-0-0-0-0-0-0-0-0-0-0-------------------0-0-0-0-0-0-0-0-0-0-----------------------|
B|-3-3-3-2-2-2-3-3-3-3-------------------3-3-3-2-2-2-3-3-3-3-----------------------|
G|-2-2-2-2-2-2-2-2-2-2-7-6---6-7-9-7-6-7-2-2-2-2-2-2-2-2-2-2-7-6-------------------|
D|-0-0-0-0-0-0-0-0-0-0-5-4-0-------------0-0-0-0-0-0-0-0-0-0-5-4-0-4b-4-0----------|
A|-0-0-0-0-0-0-0-0-0-0-5-4-0-------------0-0-0-0-0-0-0-0-0-0-5-4-0-----------------|
D|-0-0-0-0-0-0-0-0-0-0-5-4-0-------------0-0-0-0-0-0-0-0-0-0-5-4-0-----------------|

Chorus Play Rhy. Fig. 4 with Dist.
       Can you take me higher?
       To the place where blind men see 
       Can you take me higher? 
       To the place with golden streets

2nd. verse Play Rhy. Fig. 2
       Although I would like our world to change 
       It helps me to appreciate 
       Those nights and those dreams 
       But, my friend, I'd sacrifice all those nights 
       If I could make the Earth and my dreams the same 
       The only difference is 
       To let love replace all our hate 

(pre-chorus)        
(chorus)
(pre-chorus)
(Rhy.Fig.1 with Dist.)

Fill 1 
E|---------------------------------------------------------------------------------|
B|---------------------------------------------------------------------------------|
G|---------------------------------------------------------------------------------|
D|-0-0-0-7-7-7-5-5-5-5-0-0-0-5-0-0-0-0-0-------------------------------------------|
A|-0-0-0-7-7-7-5-5-5-5-0-0-0-5-0-0-0-0-0-------------------------------------------|
D|-0-0-0-7-7-7-5-5-5-5-0-0-0-5-0-0-0-0-0-------------------------------------------|

2nd. pre-chorus Play Fill 1 with Dist.
       Up high I feel like I'm alive for the very first time 

2a pre-chorus Play Rhy.Fig. 1 with Dist. 
       Up high I'm strong enough to take these dreams
       And make them mine 

Play Rhy. Fig. 1 N.D. twice (second time with 2a pre-chorus)

(chorus) until finished

Done!!! vote for it, and if you have any comment, e-mail me, thanx!!!
Show more