Higher
tabbed by: Mark Jones (http://www.markjones2005.com)
           markjones_2005@yahoo.com

Drop D Tuning:
(1)-E
(2)-B
(3)-G
(4)-D
(5)-A
(6)-D

[Intro]

***Notes***
Play the whole Intro through, then insert *Fill 1* over the area
marked, "First Time Only".

e-------|------------------------------------
b-------|------------------------------------
g-------|-7-7-9-9----9/11-11-9-11-11/12-9-9--
d---0-0-|-0-0-0-0----0----0--0-0--0-----0-0--
a---0-0-|-0-0-0-0----0----0--0-0--0-----0-0--
d---0-0-|-0-0-0-0----0----0--0-0--0-----0-0--


e-----------------------------
b-----------------------------
g-9-9-11-11-11h97-9-9-11-9-7-
d-7-7-7--7--7------7-7-7--7-0-
a-7-7-7--7--7------7-7-7--7-0-
d-7-7-7--7--7------7-7-7--7-0-


                         |????Insert Fills Here??????|
e---------------------------------------------------------|
b---------------------------------------------------------|
g--7-7-9-9-7-7-7-7-7-0-0--12-11-11-11-9-11-11-9-7-7-7----*|
d--5-5-5-5-5-5-5-5-5-0-0--0--0--0--0--0-0--0--0-0-0-0----*|
a--5-5-5-5-5-5-5-5-5-0-0--0--0--0--0--0-0--0--0-0-0-0-----|
d--5-5-5-5-5-5-5-5-5-0-0--0--0--0--0--0-0--0--0-0-0-0-----|


************************************
* Fill 1                           *
* e------------------------------- *
* b------------------------------- *
* g------------------------------- *
* d--5-00--0-----5-00---454-2-0--- *
* a--5-00--0-----5-00---454-2-0--- *
* d--5-00--0-----5-00---454-2-0--- *
************************************

**************************************************************

[Verse]
***Notes***
Play the line 6 times. On the second time, insert Fill 2 
directly over the indicated measure.

                                       |???Fill 2???????????|
e--5----0-0-0-0----------------------|-0----0-0-0-0-----0-0---|
b--3----3-3-3-3----------------------|-0----0-0-0-0-----0-0---|
g--2----2-2-2-2---------------0------|-7----7-7-7-7-----7-7---|
d--0----0-0-0-0------------0--0------|-7----7-7-7-7-----7-7---|
a--0----0-0-0-0-----4/5----0-----4/5-|-5----5-5-5-5-----5-5---|
d--0----0-0-0-0-----0------------4/5-|-5----5-5-5-5-----5-5---|
                                       ^^^^^^^^^^^^^^^^^^^^^^
                             Fill 2 **************************** 
                                    *|-0----0-0-0-----0-------|*
                                    *|-0----0-0---0-----0-----|*
                                    *|-7----7-7-----7-----7---|*
                                    *|-7----7-7-------7-----7-|*
                                    *|-5----5-5---------------|*
                                    *|-5----5-5---------------|*                                                                     ****************************

****************************************************************

[Pre-Chorus]
***Notes***
Play as written.

e----------------------------------------------------------------
b----------------------------------------------------------------
g----------------------------------------------------------------
d-4-4-4-4-4-4-4-4-4-4-4-4-4-4-4-4-5-5-5-5-5-5-5-5-5-5-5-5-5-5-5-5
a-4-4-4-4-4-4-4-4-4-4-4-4-4-4-4-4-5-5-5-5-5-5-5-5-5-5-5-5-5-5-5-5
d-4-4-4-4-4-4-4-4-4-4-4-4-4-4-4-4-5-5-5-5-5-5-5-5-5-5-5-5-5-5-5-5
  pm_____________________________________________________________


e----------------------------------------------------------------
b----------------------------------------------------------------
g----------------------------------------------------------------
d-4-4-4-4-4-4-4-4-4-4-4-4-4-4-4-4-5-5-5-5-5-5-5/17-17-17-17-17-17
a-4-4-4-4-4-4-4-4-4-4-4-4-4-4-4-4-5-5-5-5-5-5-5/17-17-17-17-17-17
d-4-4-4-4-4-4-4-4-4-4-4-4-4-4-4-4-5-5-5-5-5-5-5/17-17-17-17-17-17
  pm_____________________________|


*****************************************************************

[Chorus]
***Notes***
Play through 2x

e------------------------------------------------------
b------------------------------------------------------
g-----------------------------------6-7-9p7p6-7~-------
d-7-7-7-7-7-7-7---0-|-5-X-0-----000---------------0-0--
a-5-5-5-4-4-4-5/4-0-|-5-5-0-----000---------------0-0--
d-------------------|-5-4-0-----000---------------0-0--

e-----------------------------------|
b-----------------------------------|
g-----------------------------------|
d-7-7-7-7-7---0--5-X-0-000--4b5r4p0-|
a-4-4-4-4-5/4-0--5-5-0-000----------|
d----------------5-4-0-000----------|

****************************************************************

[Interlude]
***Notes***
Play the Intro through once with Fill 1, then play what's written
below, then play the Intro with Fill 3 (shown below)

e--------------------------------------------------------------------
b--3-3-3-3-3-3-------------------------------------------------------
g--2-2-2-2-2-2-9-9-9-9-9-9------7-7-7-7-7-7-7------------------------
d--0-0-0-0-0-0-7-7-7-7-7-7------5-5-5-5-5-5-5---5-0-0-0-5-0-0-0-5-0-0
a--0-0-0-0-0-0-7-7-7-7-7-7------5-5-5-5-5-5-5---5-0-0-0-5-0-0-0-5-0-0
d--0-0-0-0-0-0-7-7-7-7-7-7-0-0--5-5-5-5-5-5-5---5-0-0-0-5-0-0-0-5-0-0
                        pm|...|

*******************************
*Fill 3                       *
*e----------------------------*
*b----------------------------*
*g-------12-11--------12-117-*
*d--0----X--X-----0-0-X--X-X-*
*a--0----10-9-----0-0-10-9-5-*
*d--0-------------0-0---------*
*******************************

That's It! It took me awhile to make this tab easy to read and stuff.
It's correct in every way, I know for sure. If you have a question
about how to insert the fills, or something, just email me at my
email address: markjones_2005@yahoo.com
Below I've included the order of lines, what fills to insert, how
many times it is played, and whether or not to use distortion.


The order is as follows:
Section name:::::::Fill::::::::::Played:::::::::Distortion
Intro           [no fill]        (1x)           No
Intro           [Fill 1]         (1x)           Yes
Verse           [no fill]        (1x)           No
Verse           [Fill 2]         (1x)           No
Verse           [no fill]        (4x)           No
Pre-Chorus                       (1x)           Yes
Chorus                           (2x)           Yes
Verse           [no fill]        (1x)           No
Verse           [Fill 2]         (1x)           No
Verse           [no fill]        (4x)           No
Pre-Chorus                       (1x)           Yes
Chorus                           (2x)           Yes
Pre-Chorus                       (1x)           Yes
Intro           [Fill 1]         (1x)           Yes
Interlude                        (1x)           Yes
Intro           [Fill 3]         (1x)           Yes
Intro           [Fill 1]         (1x)           No (Yes on the Fill)
Chorus                           (to the end)   Yes
Show more