Turn your bass to dadg.
intro
g----------------------------------------------------------------------------------
d----------------------------------------------------------------------------------
a----------0-000-000---------------------------------------------------------------
d0--000-000---------5-555-555--5-44-0544-0540--------------------------------------

verse
g----------------------------------------------------------------------------------
d----------------------------------------------------------------------------------
a---4h5-4h5----0-4h5-4h5-----------------------------------------------------------
d0-4---0---5-44-----0---5-44-------------------------------------------------------
repeat x3

pre course
g----------------------------------------------------------------------------------
d----------------------------------------------------------------------------------
a----------------------------------------------------------------------------------
d4444444444444444-5555555555555555-4444444444444444-55555555/17171717--------------

course
g----------------------------------------------------------------------------------
d------4-5/7-----4h54h5-----4-5/7--------------------------------------------------
a 4----------4----------4--------4-------------------------------------------------
d0-540------0-540------0-540------540----------------------------------------------

order
verse1x1 
precourse1x1
course1x1
verse2x1
precoure2x1
course2x1
precourse3x1
Then play intro again stop at the guitar part after the guitar play 5-44-0-544-0540 then play course till the end. This is a great creed song i'm 90% sure this right. any ? ask me
Show more