Artist:  Creed
Song:  Higher
Album:  Human Clay
Tabbed by: Jon Gluff (incubus_fan457@msn.com)
This is my first tab.  I’ve played bass for over 8 ? years, and I’ve gotten to be fairly good at figuring songs out.  This should be 100% correct, so knock yourself out!

Intro:
G|-------------------------------------------------------------------------
D|-------------------------------------------------------------------------
A|---------------------------------5-4--4-5-7---------------------------
D|-0--0-0-0--0-0-0--4-5-7--7---------------5--5-5-4h5-5-5-5-4h5
Lead-in
G|-----------------------------------
D|-----------------------------------
A|-----------------------------------
D|-5-0-0-0-5-0-0-0-0-5-4-2-4-0
Verse:
G|--------------------------------------------------------------------------------------
D|-----------------------------------------------------------------5--5--4h5-4h5--7
A|-----------4h5-4h5------------------------5--5-5-4h5-4h5----------------------
D|-0-0-0-0------------5--5-5-4h5-4h5--7------------------------------------------
Variation--Last measure of 1st verse:
G|-------------------------------------------------------------------------------------------------------
D|-------------------------------------------------------------------------------------------------------
A|-----------4h5-4h5--------------------------------4h5-4h5---------4h5-4h5---------------------
D|-0-0-0-0------------5--5-5-4h5-4h5--7-0-0-0-------------0-0-0------------5--5-5-5-5-5-5-5
Pre-Chorus:
G|--------------------------------------------------------------------------------
D|--------------------------------------------------------------------------------
A|--------------------------------------------------------------------------------
D|-4-4-4-4-4-4-4-4-4-4-4-4-4-4-4-4-5-5-5-5-5-5-5-5-5-5-5-5-5-5-5-5

G|---------------------------------------------------------------------------------------------
D|---------------------------------------------------------------------------------------------
A|---------------------------------------------------------------------------------------------
D|-4-4-4-4-4-4-4-4-4-4-4-4-4-4-4-4-5-5-5-5-5-5-5-5/-17-17-17-17-17-17-17-17


Chorus                                        * ending variation I   * ending variation II
G|----------------------------------  |-------------                |------------
D|----------------------------------  |-------------                |------------
A|-------5---5-4--4-5-7----------  |-------------               |-------------
D|-0--0---0----------------5-4-0-  |-0-0-4-5-7                |-0-0--4b


Intro ending riff variation (right before interlude, substitute this in for Lead-In riff):
G|-------------------------
D|-------------------------
A|-------------------------
D|-0-4-5-4--0-4-5-4--0
Interlude (when Scott starts singing again):
G|----------------------------
D|----------------------------
A|----------0---0------------
D|-0---0------------5---5---
Song structure:
Intro
Lead-in
Verse 2x
Variation
Pre-Chorus
Chorus with ending variation I
Chorus with ending variation II
Chorus with ending variation I
Chorus with no ending variation
Verse 3x
Pre-Chorus
Chorus with ending variation I
Chorus with ending variation II
Chorus with ending variation I
Chorus with no ending variation
Pre-Chorus
Intro
Lead-In
Intro
Lead-In
Intro
Intro ending riff variation
Rest 1 measure
Interlude
Lead-In
Chorus w/ E.V.I
Chorus w/ E.V.II
Chorus w/ E.V.I
Chorus w/ E.V.II
Chorus w/ E.V.I 3x
Chorus w/ no ending variation
Show more