Creed
High
Tabbed by:Matt Jones


e------|----------------------------------------------------|----
b------|----------------------------------------------------|----
g------|--7----7--9-----9^-11----11--9--11-11^-12-----9--9--|-9--
d-0-0--|--0----0--0-----0---------0--0---0--0---------0--0--|-7--
a-0-0--|--0----0--0-----0---------0--0---0--0---------0--0--|-7--
D-0-0--|--0----0--0-----0---------0--0---0--0---------0--0--|-7--

e----------------------------------------------------|------------
b----------------------------------------------------|------------
g-9----9--11----11--11v-9v-7--9----9--11-----9----7--|----7----7--
d-7----7---7-----7---7--------7----7---7-----7----0--|----5----5--
a-7----7---7-----7---7--------7----7---7-----7----0--|----5----5--
D-7----7---7-----7---7--------7----7---7-----7----0--|----5----5--

e--------------------------------------|---------------------------
b--------------------------------------|---------------------------
g--9-------9--7----7--7----7--7----0---|-12--11----11-------11--9--
d--5-------5--5----5--5----5--5----0---|--0---0-----0--------0--0--
a--5-------5--5----5--5----5--5----0---|--0---0-----0--------0--0--
D--5-------5--5----5--5----5--5----0---|--0---0-----0--------0--0--

e------------------------------------------------------------------
b------------------------------------------------------------------
g-11------11--9-----7------7---7-----------------------------------
d--0-------0--0-----0------0---0-----------------------------------
a--0-------0--0-----0------0---0-----------------------------------
D--0-------0--0-----0------0---0-----------------------------------

turn on distortion for the next part and repeat that

now for the verse

e--5------------0-------0-------------------------------------
b--3------------3-------0-------------------------------------
g--2------------2-------7-------------------------------------
d--0------------0-------7-------------------------------------
a--0------------0-------5-------------------------------------
D--0------------0-------5-------------------------------------
those are the chords repeated through verse one and 2

now for the part before the chorus
P.M.----------------------------------
e-------------------------------------
b----------8--------------------------
g-7--------7--------7-----------------
d-4-etc.---5-etc.---4-etc.------------
a-4--------5--------4-----------------
D-4--------5--------4-----------------
do not palm mute

e-------------------------------------
b-8----^-20---------------------------
g-7----^-19---------------------------
d-5-x7-^-17-x6------------------------
a-5----^-17---------------------------
D-5----^-17---------------------------

Chorus (Repeated twice)
e-------------------------------------|-----------------------------|
b-------------------------------------|-----------------------------|
g-------------------------------------|-7----7------------6-7-9-7-6-|
d-7----7--7---7-----7-7-7---7-----0---|-5----X---0----0-------------|
a-5----5--5---4-----4-4-4---5v-4--0---|-5----5---0----0-------------|
D-------------------------------------|-5----4---0----0-------------|
  ~~~~~                                                   ½
e--------------------------------|-----------------------^-v--------|
b-7------------------------------|----------------------^---v-------|
g--------------------------------|--7------7-----------^-----v------|
d----0--0----7-----7-7-7-7----0--|--5------X-----0---4^-------(4)v-0|
a----0--0----4-----4-4-4-5v-4-0--|--5------5-----0------------------|
D----0--0------------------------|--5------4-----0------------------|

This is the part right after the first part of the solo in which Mark
does NOT play g like the opening
                   P.M.-|        P.M.-------------------------------|
e-------------------------------------------------------------------|
b-3-------10--------------8-----------------------------------------|
g-2--------9--------------7-----------------------------------------|
d-0-etc.---7-etc.---------5-etc.-5--0-----0-----0--5--0-----0---0--5|
a-0--------7--------------5------5--0-----0-----0--5--0-----0---0--5|
D-0--------7-------0---0--5------5--0-----0-----0--5--0-----0---0--5|
 P.M.-|
e-------
b-------
g-------
d-0--0--
a-0--0--
D-0--0--
Show more