Intro (After guitar intro)
G|---------------------------------------------------------------------------
D|---------------------------------------------------------------------------
A|---------------------------------------------------------------------------
D|0*--------7*-----------5*---------------5-0-0--0-5-0-0---0-5-0-0-0-0-------

Verses  (When dreaming.....)
G|---------------------------------------------------------------------------
D|-------4-4-5-5-5----------------------------------------------------------- x6
A|---------------------------------------------------------------------------
D|0------------------5-5-5--7-7-7--------------------------------------------

Pre-Chorus   (So Let's go there.....)
G|---------------------------------------------------------------------------
D|---------------------------------------------------------------------------
A|-------------------------------------------------------/10-10~~------------
D|444444444444444-5555555555555555-4444444444444-55555-----------------------

Chorus   (Can you take me higher..)
G|---------------------------------------------------------------------------
D|---------------------------4-5-7-------------------------------------------
A|5-55-4-4-4h5-5p4----------------5------------------------------------------
D|------------------5-4-0~---------------------------------------------------

Then   (To a place where blind men see..)
G|---------------------------------------------------------------------------
D|----------------------------4^---------------------------------------------
A|5-55-4-4-4h5-5p4-----------------------------------------------------------
D|------------------5-4-0~---------------------------------------------------

After the second Chorus play the Pre-Chorus riff. During the Bridge play the Intro riff.

~ let it ring out
^ bend
h hammer-on
p pull off
/ slide
*Hit multiple strokes on that fret

I don't particularly like Creed, but Mark Tremonti is awesome. He also rights their bass riffs.
Any questions; njdevils161@yahoo.com
Show more