Artist:Creed 
Song:Higher Tab
Writen by:Scott Stapp/Mark Tremonti

I love this song, its really cool.Hear the song for the questions.(Rate this tab)

Intro
E/---x-x-x--x-x--x--x--x-x--x-x-x-x--x-x-x---/
B/---x-x-x--x-x--x--x--x-x--x-x-x-x--x-x-x---/
G/---7-9/11-9-11/12-11-9-11-9p7h9-11-7-9-7---/ 
D/---0-0-0--0-0--0--0--7-7--7-7-7-7--5-5-5---/
A/---0-0-0--0-0--0--0--7-7--7-7-7-7--5-5-5---/
D/---0-0-0--0-0--0--0--7-7--7-7-7-7--5-5-5---/

E/---x--x--x-x--x-x--x-x---/
B/---x--x--x-x--x-x--x-x---/
G/---12-11-9-11-9-11-9-7---/   
D/---0--0--0-0--0-0--0-0---/
A/---0--0--0-0--0-0--0-0---/
D/---0--0--0-0--0-0--0-0---/

Turn to distortion

E/---x-x-x--x-x--x--x--x-x--x-x-x-x--x-x-x----------------------------------/
B/---x-x-x--x-x--x--x--x-x--x-x-x-x--x-x-x----------------------------------/
G/---7-9/11-9-11/12-11-9-11-9p7h9-11-7-9-7----------------------------------/ 
D/---0-0-0--0-0--0--0--7-7--7-7-7-7--5-5-5--5-0--0-0--5-0--0-0--------------/
A/---0-0-0--0-0--0--0--7-7--7-7-7-7--5-5-5--5-0--0-0--5-0--0-0--------------/
D/---0-0-0--0-0--0--0--7-7--7-7-7-7--5-5-5--5-0--0-0--5-0--0-0--5-4-2-4-0---/

Verse
E/---0-0--5-5--0-0--x----5-5-5-5-5-5---/
B/---3-3--3-3--3-3--x----5-5-5-5-5-5---/
G/---2-2--2-2--2-2--x--7-7-7-7-7-7-7---/    (X6)
D/---0-0--0-0--0-0--x--7-7-7-7-7-7-7---/
A/---0-0--0-0--0-0--x--5-5-5-5-5-5-5---/
D/------------------x--5-5-5-5-5-5-5---/

Pre-Chorus

E/----------------------------------------------------------------------------------------------/
B/----------------------------------------------------------------------------------------------/
G/----------------------------------------------------------------------------------------------/   
D/---4-4-4-4-4-4-4-4-4-4-4-5-5-5-5-5-5-5-5-5-5-5-4-4-4-4-4-4-4-4-4-4-4-5-5-5-5-5-5-5-5-5-5-5/12-/
A/---4-4-4-4-4-4-4-4-4-4-4-5-5-5-5-5-5-5-5-5-5-5-4-4-4-4-4-4-4-4-4-4-4-5-5-5-5-5-5-5-5-5-5-5/12-/
D/---4-4-4-4-4-4-4-4-4-4-4-5-5-5-5-5-5-5-5-5-5-5-4-4-4-4-4-4-4-4-4-4-4-5-5-5-5-5-5-5-5-5-5-5/12-/

E/--------------------------/
B/--------------------------/
G/--------------------------/   
D/---12-12-12-12-12-12-12---/
A/---12-12-12-12-12-12-12---/
D/---12-12-12-12-12-12-12---/

Chorus

E/------------------------------------------------------/
B/------------------------------------------------------/
G/---7--7-7-7-7-7-7-7-7-7-7-7-7-----------6-7-8-7p6h7---/
D/---7--7-7-7-7-7-7-7-7-7-7-7-7--5-4-0-0----------------/
A/---5--5-5-5-5-4-4-4-4-5-5-5-5--5-4-0-0----------------/
D/-------------------------------5-4-0-0----------------/
                                                                (X2)
E/-----------------------------------------------/
B/-----------------------------------------------/
G/---7--7-7-7-7-7-7-7-7-7-7-7-7-----------4^-0---/
D/---7--7-7-7-7-7-7-7-7-7-7-7-7--5-4-0-0---------/
A/---5--5-5-5-5-4-4-4-4-5-5-5-5--5-4-0-0---------/
D/-------------------------------5-4-0-0---------/

Repeat verse
Repeat Pre-Chorus
Repeat Chorus
Repeat Pre-Chorus

Solo

E/---x-x-x--x-x--x--x--x-x--x-x-x-x--x-x-x----------------------------------/
B/---x-x-x--x-x--x--x--x-x--x-x-x-x--x-x-x----------------------------------/
G/---7-9/11-9-11/12-11-9-11-9p7h9-11-7-9-7----------------------------------/ 
D/---0-0-0--0-0--0--0--7-7--7-7-7-7--5-5-5--5-0--0-0--5-0--0-0--------------/
A/---0-0-0--0-0--0--0--7-7--7-7-7-7--5-5-5--5-0--0-0--5-0--0-0--------------/
D/---0-0-0--0-0--0--0--7-7--7-7-7-7--5-5-5--5-0--0-0--5-0--0-0--5-4-2-4-0---/

Bridge

E/--------------------------------------------------------------------------------/
B/--------------------------------------------------------------------------------/
G/--------------------------------------------------------------------------------/   
D/---0-0-0-0-0-0-0--7-7-7-7-7-7-7--5-5-5-5-5-5-5--5-0--0-0--5-0--0-0--------------/
A/---0-0-0-0-0-0-0--7-7-7-7-7-7-7--5-5-5-5-5-5-5--5-0--0-0--5-0--0-0--------------/
D/---0-0-0-0-0-0-0--7-7-7-7-7-7-7--5-5-5-5-5-5-5--5-0--0-0--5-0--0-0--5-4-2-4-0---/

E/---x-x-x--x-x--x--x--x-x--x-x-x-x--x-x-x-----------------------/
B/---x-x-x--x-x--x--x--x-x--x-x-x-x--x-x-x-----------------------/
G/---7-9/11-9-11/12-11-9-11-9p7h9-11-7-9-7-----------------------/ 
D/---0-0-0--0-0--0--0--7-7--7-7-7-7--5-5-5--0-0-5-4--0-0-5-4-0---/
A/---0-0-0--0-0--0--0--7-7--7-7-7-7--5-5-5--0-0-5-4--0-0-5-4-0---/
D/---0-0-0--0-0--0--0--7-7--7-7-7-7--5-5-5--0-0-5-4--0-0-5-4-0---/

Without distortion

E/---x-x-x--x-x--x--x--x-x--x-x-x-x--x-x-x---/
B/---x-x-x--x-x--x--x--x-x--x-x-x-x--x-x-x---/
G/---7-9/11-9-11/12-11-9-11-9p7h9-11-7-9-7---/ 
D/---0-0-0--0-0--0--0--7-7--7-7-7-7--5-5-5---/
A/---0-0-0--0-0--0--0--7-7--7-7-7-7--5-5-5---/
D/---0-0-0--0-0--0--0--7-7--7-7-7-7--5-5-5---/

E/---x--x--x-x--x-x--x-x---/
B/---x--x--x-x--x-x--x-x---/
G/---12-11-9-11-9-11-9-7---/   
D/---0--0--0-0--0-0--0-0---/
A/---0--0--0-0--0-0--0-0---/
D/---0--0--0-0--0-0--0-0---/


E/---x-x-x--x-x--x--x--x-x--x-x-x-x--x-x-x---/   
B/---x-x-x--x-x--x--x--x-x--x-x-x-x--x-x-x---/   
G/---7-9/11-9-11/12-11-9-11-9p7h9-11-7-9-7---/    
D/---0-0-0--0-0--0--0--7-7--7-7-7-7--5-5-5---/   
A/---0-0-0--0-0--0--0--7-7--7-7-7-7--5-5-5---/   
D/---0-0-0--0-0--0--0--7-7--7-7-7-7--5-5-5---/   

Turn to distortion

E/------------------------/
B/------------------------/
G/------------------------/ 
D/---5-0--0-0--5-0--0-0---/
A/---5-0--0-0--5-0--0-0---/
D/---5-0--0-0--5-0--0-0---/

Repeat Chorus To The End

Have Fun!
Tabbed by HMMR
Show more