Song:Higher
Artist:Creed
Album:I don't know

This song is prety cool in acoustic, but i still thinking that the
original one is much better.

Intro

E/---x-x-x--x-x--x--x--x-x--x-x-x-x--x-x-x---/
B/---x-x-x--x-x--x--x--x-x--x-x-x-x--x-x-x---/
G/---7-9/11-9-11/12-11-9-11-9p7h9-11-7-9-7---/ 
D/---0-0-0--0-0--0--0--7-7--7-7-7-7--5-5-5---/
A/---0-0-0--0-0--0--0--7-7--7-7-7-7--5-5-5---/
D/---0-0-0--0-0--0--0--7-7--7-7-7-7--5-5-5---/

E/---x--x--x-x--x-x--x-x---/
B/---x--x--x-x--x-x--x-x---/
G/---12-11-9-11-9-11-9-7---/   
D/---0--0--0-0--0-0--0-0---/
A/---0--0--0-0--0-0--0-0---/
D/---0--0--0-0--0-0--0-0---/

Verse

E/---0-0--5-5--0-0--x----5-5-5-5-5-5---/
B/---3-3--3-3--3-3--x----5-5-5-5-5-5---/
G/---2-2--2-2--2-2--x--7-7-7-7-7-7-7---/    (X6)
D/---0-0--0-0--0-0--x--7-7-7-7-7-7-7---/
A/---0-0--0-0--0-0--x--5-5-5-5-5-5-5---/
D/------------------x--5-5-5-5-5-5-5---/

Pre-Chorus

E/---------4--------4--------5--------5--------4--------4--------5--------5-5-5-5---/
B/---------4--------4--------5--------5--------4--------4--------5--------5-5-5-5---/
G/---------6--------6--------7--------7--------6--------6--------7--------7-7-7-7---/
D/---------6--------6--------7--------7--------6--------6--------7--------7-7-7-7---/
A/---4-4-4-4--4-4-4-4--5-5-5-5--5-5-5-5--4-4-4-4--4-4-4-4--5-5-5-5--5-5-5-5-5-5-5---/
D/---4-4-4-4--4-4-4-4--5-5-5-5--5-5-5-5--4-4-4-4--4-4-4-4--5-5-5-5--5-5-5-5-5-5-5---/

Chorus

E/--------------------------------------------------------/
B/--------------------------------------------------------/
G/----------------------------------------6-6-7-8-7p6h7---/
D/---7--7-7-7-7-7-7-7-7-7-7-7-7--5-4-0-0--0-0-0-0-0-0-0---/  (X4)
A/---5--5-5-5-5-4-4-4-4-5-5-5-5--5-4-0-0--0-0-0-0-0-0-0---/
D/-------------------------------5-4-0-0--0-0-0-0-0-0-0---/

Repeat Verse
Repeat Pre-Chorus
Repeat Chorus

Solo

E/---x-x-x--x-x--x--x--x-x--x-x-x-x--x-x-x---/
B/---x-x-x--x-x--x--x--x-x--x-x-x-x--x-x-x---/
G/---7-9/11-9-11/12-11-9-11-9p7h9-11-7-9-7---/ 
D/---0-0-0--0-0--0--0--7-7--7-7-7-7--5-5-5---/
A/---0-0-0--0-0--0--0--7-7--7-7-7-7--5-5-5---/
D/---0-0-0--0-0--0--0--7-7--7-7-7-7--5-5-5---/

E/---x--x--x-x--x-x--x-x------------------------------------/
B/---x--x--x-x--x-x--x-x------------------------------------/
G/---12-11-9-11-9-11-9-7------------------------------------/   
D/---0--0--0-0--0-0--0-0--0-5-0-5-0--0-5-0-5-0--0-5-0-5-5---/
A/---0--0--0-0--0-0--0-0--0-5-0-5-0--0-5-0-5-0--0-5-0-5-5---/
D/---0--0--0-0--0-0--0-0--0-5-0-5-0--0-5-0-5-0--0-5-0-5-5---/

Bridge

This part is played 2 times
E/---x-x-x--x-x--x--x--x-x--x-x-x-x--x-x-x------------------------------------/
B/---x-x-x--x-x--x--x--x-x--x-x-x-x--x-x-x------------------------------------/
G/---7-9/11-9-11/12-11-9-11-9p7h9-11-7-9-7------------------------------------/
D/---0-0-0--0-0--0--0--7-7--7-7-7-7--5-5-5--0-5-0-5-0--0-5-0-5-0--0-5-0-5-5---/
A/---0-0-0--0-0--0--0--7-7--7-7-7-7--5-5-5--0-5-0-5-0--0-5-0-5-0--0-5-0-5-5---/
D/---0-0-0--0-0--0--0--7-7--7-7-7-7--5-5-5--0-5-0-5-0--0-5-0-5-0--0-5-0-5-5---/

Then this part
E/---x-x-x--x-x--x--x--x-x--x-x-x-x--x-x-x--------------------------------/
B/---x-x-x--x-x--x--x--x-x--x-x-x-x--x-x-x------8-7-----8-7---/2----------/
G/---7-9/11-9-11/12-11-9-11-9p7h9-11-7-9-7--------------------------------/ 
D/---0-0-0--0-0--0--0--7-7--7-7-7-7--5-5-5--0-0-----0-0-----0-------------/
A/---0-0-0--0-0--0--0--7-7--7-7-7-7--5-5-5--0-0-----0-0-----0-------------/
D/---0-0-0--0-0--0--0--7-7--7-7-7-7--5-5-5--0-0-----0-0-----0-------------/

This part is played softly
E/---x-x-x--x-x--x--x--x-x--x-x-x-x--x-x-x---/
B/---x-x-x--x-x--x--x--x-x--x-x-x-x--x-x-x---/
G/---7-9/11-9-11/12-11-9-11-9p7h9-11-7-9-7---/ 
D/---0-0-0--0-0--0--0--7-7--7-7-7-7--5-5-5---/
A/---0-0-0--0-0--0--0--7-7--7-7-7-7--5-5-5---/
D/---0-0-0--0-0--0--0--7-7--7-7-7-7--5-5-5---/

E/---x--x--x-x--x-x--x-x---/
B/---x--x--x-x--x-x--x-x---/
G/---12-11-9-11-9-11-9-7---/   
D/---0--0--0-0--0-0--0-0---/
A/---0--0--0-0--0-0--0-0---/
D/---0--0--0-0--0-0--0-0---/

E/---x-x-x--x-x--x--x--x-x--x-x-x-x--x-x-x---/
B/---x-x-x--x-x--x--x--x-x--x-x-x-x--x-x-x---/
G/---7-9/11-9-11/12-11-9-11-9p7h9-11-7-9-7---/ 
D/---0-0-0--0-0--0--0--7-7--7-7-7-7--5-5-5---/
A/---0-0-0--0-0--0--0--7-7--7-7-7-7--5-5-5---/
D/---0-0-0--0-0--0--0--7-7--7-7-7-7--5-5-5---/

Then do this
E/-------------------------------------/
B/-------------------------------------/
G/-------------------------------------/
D/---0-5-0-5-0--0-5-0-5-0--0-5-0-5-5---/
A/---0-5-0-5-0--0-5-0-5-0--0-5-0-5-5---/
D/---0-5-0-5-0--0-5-0-5-0--0-5-0-5-5---/

Repeat Chorus to the end

Thats the whole song.There are some parts tha are very diferent to the original.
It's sounds very cool.
Have fun!
Tabbed by HMMR
Show more