"One" - Creed
>From the album "My Own Prison"
Written by Scott Stapp and Mark Tremonti
Transcribed by Garret Pisz (lovehatetragedy86@hotmail.com)

Standard Tuning (EADGBE)
m - palm mute
/ - slide
h - hammer-on

INTRO/VERSE
   C#m                 A
   m..........
e--------------------|-------------------|
b--------------------|-------------------|
g--------------------|-------------------|
d--------------------|11--11-11-9--11/14-|
a--7-7-7-6-6-6-6/7-0-|-0---0--0-0---0--0-|
e--9-9-9-9-9-9-9-----|-------------------|
  
  E                     B
e---------------------|---------------------|
b-0--0-0-0-0--0-0-0-0-|---------------------|
g-9--9-9-9-9--9-9-9-9-|---------------------|
d-9--9-9-9-9--9-9-9-9-|-9--9-9-9-9--9-9-9-9-|
a-7--7-7-7-7--7-7-7-7-|-9--9-9-9-9--9-9-9-9-|
e---------------------|-7--7-7-7-7--7-7-7-7-|

CHORUS
  B                    F#
e--------------------|--------------------|
b--------------------|--------------------|
g-4--4-4-4--4-4-4--4-|--------------------|
d-4--4-4-4--4-4-4--4-|-4--4-4-4--4-4-4--4-|
a-2--2-2-2--2-2-2--2-|-4--4-4-4--4-4-4--4-|
e--------------------|-2--2-2-2--2-2-2--2-|

  C#                   G#
e--------------------|--------------------|
b--------------------|--------------------|
g-6--6-6-6--6-6-6--6-|--------------------|
d-6--6-6-6--6-6-6--6-|-6--6-6-6--6-6-6--6-|
a-4--4-4-4--4-4-4--4-|-6--6-6-6--6-6-6--6-|
e--------------------|-4--4-4-4--4-4-4--4-|

INTERLUDE (w/phase shifter)
  Bsus2    F#7add4      C#sus2   G#(sus4)
e------2-|----0-------|------4-|---------|
b------2-|------0-----|------4-|---------|
g------4-|--------3---|------6-|-----6-5-|
d----4---|-----------4|----6---|---------|
a-2------|------------|-4------|---6-----|
e--------|0-2---------|--------|-4-------|
                                    
  m..........
e-----|-----------|    |---------------------------|
b-----|-----------|    |---------------------------|
g-----|-------8---|3x  |-9--9-9--9-9--9-9--9-9-9-9-|
d-----|---------9-|    |---------------------------|
a-X-X-|-7h9-9-----|    |---------------------------|
e-----|-----------|    |---------------------------|

OUTRO
  B                           F#
                              m....    m....    m..   m
e---------------------------|---------------------------|
b---------------------------|---------------------------|
g-4--4-4--4-4--4-4--4-4-4-4-|---------------------------|
d-4--4-4--4-4--4-4--4-4-4-4-|---------------------------|
a-2--2-2--2-2--2-2--2-2-2-2-|-------4--------4------4---|
e---------------------------|-2-2-2----2-2-2----2-2---2-|

  C#                          G#
                              m....    m....    m..
e---------------------------|---------------------------|
b---------------------------|---------------------------|
g-6--6-6--6-6--6-6--6-6-6-6-|---------------------------|
d-6--6-6--6-6--6-6--6-6-6-6-|---------------------------|
a-4--4-4--4-4--4-4--4-4-4-4-|-------6--------6------6-6-|
e---------------------------|-4-4-4----4-4-4----4-4-4-4-|
Show more