Author/Artist: Creed
Title: Lullaby
Album: Weathered
Transcribed by: Justin Cole
Email: ap12bass@yahoo.com

Guitar by Mark Tremonti, lyrics and vocals by Scott Stapp

Once again, Mark Tremonti goes to Drop D tuning, but with the acoustic 
guitar.
Bear with me... this is my first tab.

------------------------|----------------------------|------------------------
------------------------|----------------------------|------------------------
------------------------|--------9-7----------7h9----|------------------------
-12-11--11-9--9-7--7----|-12-11--7-----7h9-7------0--|------------------------
---------------------0--|--------------------------0-|------------------------
-9----0-7---0-5--5-0--0-|-9----0-7---0---5--5-0------|------------------------
part 1                                                repeat part 1

-----------------------|------------------------------------------------------
-----------------------|------------------------------------------------------
-----------------------|------------------------------------------------------
-5-4--9-7-4----4h5-4-0-|------------------------------------------------------
------------0----------|------------------------------------------------------
-2---/5---0--0---------|------------------------------------------------------
play once

-----------------------|------------------------|----------------|------------
-----------------------|------------------------|----------------|------------
-----------------------|------------------------|-11-12----------|------------
-5-4--9-7--12-11--11-9-|-5-4--9-7--12-11--11-9--|-0-----11-11h12-|------------
-----------------------|------------------------|----------------|------------
-2---/5---/9----0-7----|-2---/5---/9----0-7---0-|-------9--------|------------
part 2                                                            (pause)

-----------------------|------------------------------------------------------
-----------------------|------------------------------------------------------
-----------------------|------------------------------------------------------
-5-4--9-7-4----4h5-4-0-|------------------------------------------------------
------------0----------|------------------------------------------------------
-2---/5---0--0---------|------------------------------------------------------
part 3                  repeat twice, pause on the third

------------------------------------------------------------------------------
------------------------------------------------------------------------------
-4h5-4------------------------------------------------------------------------
-------0-2/4-5-0--------------------------------------------------------------
------------------------------------------------------------------------------
------------------------------------------------------------------------------
transition back to part 1,  repeat all parts

------------------------------------------------------------------------------
------------------------------------------------------------------------------
-4h5-4-----------0-----------------------------------------------------------
-------0-2/4-5-0-------------------------------------------------------------
------------------------------------------------------------------------------
------------------------------------------------------------------------------
ending

-------------|-14h15-14-------------------------------------------------------
-------------|----------15----------------------------------------------------
-11h12-11----|----------------------------------------------------------------
----------12-|----------------------------------------------------------------
-------------|----------------------------------------------------------------
-------------|----------------------------------------------------------------
accompanies part 3 at the end of the song
Show more