#----------------------------------PLEASE NOTE--------------------------------#
#This file is the author's own work and represents their interpretation of the#
#song. You may only use this file for private study, scholarship, or research.#
#-----------------------------------------------------------------------------#
#-- File created with Instab - http://www.pconline.com/~smcarey/instab.html --#
#-----------------------------------------------------------------------------#

Author/Artist: Creed
Title: My Own Prison
Album: My Own Prison 
Transcribed by: Adam Strachn
Email: CookieMonster912@hotmail.com

Drop D tuning.

Intro - 
----------------------------------------------------------------------|
-------------3--------------------------------------------------------|
------2------2---------------0-------------5---5----------------------|
------0------0---------0h3------3----------3---3---3------------------|
------0------0----0h1--------------0---3---3---3---3---3h5--3---------|
-0----0--------------------------------3---3--------------------5--3--|
                                                                              

Chorus - 
------------------------------------|-----------------------------------|
---------------------------------3--|--3--3----5---5-----6--6--6--6--6--|
-5---------4----------3----------2--|--2--2----4---4-----5--5--5--5--5--|
-3---------2----------1----------0--|--0--0----0---0-----0--0--0--0--0--|
-3---------2----------1----------0--|-----------------------------------|
-3---------2----------1----------0--|-----------------------------------|
                                                                              

Distorted Verse - 
-----------------------------------------------------------------------------|
---------3-----3--3-3--------------------------------------------------------|
---------2-----2--2-2-------------------5----5----5--------------------------|
---------0-----0--0-0---3----3----------3----3----3----3------------------0--|
-0-------0-----0--0-0---1----1----0--0--3----3----3----3---3h5--3------------|
-0-------0-----0--0-0-------------------3----3----3----------------5--3------|
                                                                              

Solo - 
----------------------------------------------------------------------------|
----------------------------------------------------------------------------|
----------------------------------------------------------------------------|
------------------------15----15-----------------------------15-----15------|
-12v~~~~~~----0--12h13------------13?12v~~~~~~-----0--12h13-------------13--|
----------------------------------------------------------------------------|
                                                                              
---------------------------------------------------------------------------|
---------------------------------------------------------------------------|
---------------------------------------------------------------------------|
-------------------------------15-----15------15----------15-----------15--|
-12v~~~~~~~~~--------0--12h13-------------13--------12----------12h13------|
---------------------------------------------------------------------------|
                                                                              
---------|
---------|
---------|
-15------|
-----13--|
---------|
                                                                              
Last Strum -
----------------|
----------------|
----------------|
-------0~~~~----|
-------0~~~~----|
-------0~~~~----|
Show more