Song: My own Prison (Acoustic)
Artist: Creed
Transcribed by Adam Pauz? AKA the Jedi Pimpster

FIRST TIME THROUGH ONLY                 
e---------------------------------------------------------------|
b------------------------------6--------------------------------|
g-------2----------0--------5--5--------------------------------|
d----0--0------0h3---3------3--3---0-0-(5)/10/9-0-0-(5)/9/7-----|
a-0--0--0--0h1---------0-3--3--3---0-0-(5)/10/9-0-0-(5)/9/7-----|
d-0-----0----------------3-----3---0-0-(5)/10/9-0-0-(5)/9/7-----|
This slide is very hard to make sound like the Song, in order to do it so it sounds right, try sliding from around the fifth fret (up to you, doesn't have to be the fifth, just wing it) to the tenth instead of just going straight to the tenth.  The same for the ninth on the second slide.  These "pre-slides" must be done very quickly.
Rest if the song, mainly.
e--------------------------------------------------|
b-------3----------------------6-------------------|
g-------2----------0--------5--5-------------------|
d----0--0------0h3---3------3--3--3-----------(0)--|
a-0--0--0--0h1---------0-3--3--3--3-3-3h5-3--------|
d-0--0--0----------------3-----3--3---------5-3----|


Guitar 2 (left channel)(slightly behind tempo)
e--------------------------------------------------|
b--------------------------------------------------|
g--------------------------------------------------|
d--------------3------(3)--------------------------|
a----------0h1-----1-1-0------------3h5-3----------|
d(0)--------------------------------------5-3------|

Every other time, this is played, only the end is different.  Guitar 2's part is played the same.
e--------------------------------------------------|
b-------3----------------------6-------------------|
g-------2----------0--------5--5-------------------|
d----0--0------0h3---3------3--3--3-----------(0)--|
a-0--0--0--0h1---------0-3--3--3--3-3-3h5-3--------|
d-0-----0----------------3-----3--3---------5-3--0-|        


Chorus - chords
      F     E     E     D (E7 F/D)
e---------------------------------|
b-------------------------|-5--6--|
g-----5-----4-----3-----2-|-4--5--|
d-----3-----2-----1-----0-|-0--0--|
a-----3-----2-----1-----0-|-------|
d-----3-----2-----1-----0-|-------|
                           (first time only)

For one Interlude/Chorus type thing, this is played
e-----------------------------------------------|
b-----------------------------------------------|
g---5--5--5--5--5--5--5--5--5-------------------|
d---5--5--5--5--5--5--5--5--5--5-----------(0)--|
a---3--3--3--3--3--3--3--3--3--3-3-3h5-3--------|
d---3--3--3--3--3--3--3--3--3--3---------5-3--0-|

e-----------------------------------------------|
b-----------------------------------------------|
g--5--5--5--5--5--5--5--5--5--------------------|
d--5--5--5--5--5--5--5--5--5--5-----------------|
a--3--3--3--3--3--3--3--3--3--3-3-3h5-3---------|
d--3--3--3--3--3--3--3--3--3--3---------5-3b-0--|
Third Verse
Guitar 1
   F       C      D       Bb
Guitar 2 (with slow phase shift) REPEAT
e------------------------------------------------|
b----------6--6-----------6--6----------6--6---6-|
g------------------------------------------------|
d--7~--7h8------8-7~--7h8-----8-7---7h8------8---|
a-----0--------------0------------0--------------|
d------------------------------------------------|
Show more