Song: My Own Prison (update)
Artist: Creed
Album: My Own Prison
Tabbed by: Originally Michael Wilson Updated by Marc Patricelli
Tuning: D A D G
 
Intro   guitar then you'll hear when the bass n drums kick in
G|-------------|-----------------0--------------------|
D|-------------|*------------0h3---3-----------------*|
A|-3-3h5-3-----|*---0-0--0h1-----------3-3-3h5-3-----*|
D|---------5-3-|--0------------------3-----------5-3--|
 
Verse
G|-----------------0--------------------|
D|*------------0h3---3-----------------*|
A|*---0-0--0h1-----------3-3-3h5-3-----*|
D|--0------------------3-----------5-3--|
 
Chorus                                              1st time        2nd time
G|-------------------------------------------|--------------------|----|
D|*----------------------------3-3-3-3-4-5-5-|---------3h5-5-5-5-*|----|
A|*------------------3-3-3-5-5---------------|----1--------------*|----|
D|--3-3-3-3-3-3-5-2-2------------------------|0-0---0-0-----------|-0--|
 
Pre-verse
G|---------------0-------------------|
D|-----------0h3---3-----------------|
A|---0---0h1-----------3---3h5-3-----|
D|-0-----------------3-----------5-3-|
 
Verse
G|-----------------0--------------------|
D|*------------0h3---3-----------------*|
A|*---0-0--0h1-----------3-3-3h5-3-----*|
D|--0------------------3-----------5-3--|
 
Pre-chorus "...Should've been dead on a Sunday morning..."
G|-------------------------------------------------------|
D|*-----------------------------------------------------*|
A|*-----------------1-1-1-1-----------------3-3h5-3-----*|
D|--0-0-0-0-0-0-0-0---------3-3-3-3-3-3-3-3---------5-3--|
 
Chorus                                              1st time        2nd time
G|-------------------------------------------|--------------------|----|
D|*----------------------------3-3-3-3-4-5-5-|---------3h5-5-5-5-*|----|
A|*------------------3-3-3-5-5---------------|----1--------------*|----|
D|--3-3-3-3-3-3-5-2-2------------------------|0-0---0-0-----------|-0--|
 
Solo                         Last time do this little fill(it sounds cool)
G|--------------------------|-----------------|
D|*------------------------*|-----------------|
A|*----------3-3h5-5-5-3-3-*|-/15-15-15-15-15-|
D|-5-5-5-7-7----------------|-----------------|
 
Chorus                                        1,2,3,and4th time    Last time just hold the
G|-------------------------------------------|--------------------|----|  open E string
D|*----------------------------3-3-3-3-4-5-5-|---------3h5-5-5-5-*|----|
A|*------------------3-3-3-5-5---------------|----1--------------*|----|
D|--3-3-3-3-3-3-5-2-2------------------------|0-0---0-0-----------|-0--|
Show more