Song- “My Sacrifice”
Album- Weathered
Written & Performed By- Creed
(v. 1.1) Transcribed By- Stewart Fenters
Drop D Tuning- DADGBd (of course..)

Ok i havent gotten a chance to listen to this much and this is my first tab so there might be some things wrong with it but hey..i try!!


INTRO.  (clean tone - let ring)
d----------0----------------7--------(7)--------------------------
B----2-------3--------------------------------x-x-x-x---x-x---x---
G------4-------4----------7---7---(7)---(7)---7-7-7/6---6/7---7---
D--------4-------4----------------------------x-x-x-x---x-x---x---
A--2------------------0-----------------------5-5-5/4---4/5---5---
D-----------------------5---------------------0-0-0(0)--0(0)--0---


d-----------------------------------------0---------------7------(7)---
B-x--x--x-x---x-x---x----x--x---------------3--------------------------
G-7--7--7/6---6/11--11--11/12-------4---------4---------7---7--(7)--(7)
D-x--x--x-x---x-x---x----x--x---0-----4---------4----------------------
A-5--5--5/4---4/9---9----9/10---0-2-----2-----------0------------------
D-0--0--0(0)--0(0)--0----0(0)---0---------------------5----------------


(Feedback - Distortion in)
VERSE (repeat 3x)
d--0(0)-0(0)--0--0-0-0--0--0-0----0(0)-0(0)--0--0-0-0--0--0---0--------
B--x-x--x-x---x--x-x-x--x--x-x----x-x--x-x---x--x-x-x--x--x---3--------
G--7/6--6/7---7--7-6/7--7--7-7----7/6--6/7---7--7-6/7--7--6---4-----/7-
D--x-x--x-x---x--x-x-x--x--x-x----x-x--x-x---x--x-x-x--x--x---4-----/5-
A--5/4--4/5---5--5-4/5--5--5-5----5/4--4/5---5--5-4/5--5--4---2-(0)-/5-
D--0(0)-0(0)--0--0-0-0--0--0-0----0(0)-0(0)--0--0-0-0--0--0---x-(0)-/5-


CHORUS 2x (strum chords)
d--0---0---0-----------------------------|
B--3---0---3-----------------------------|
G--2---2---4------7----------------------|
D--0---0---4--0-0-5---5p3x-3-3h5-5p3-0---|
A--0---4---2--0-0-5---5p3x-3-3h5-5p3-0---|
D--0---0---x--0-0-5---5p3x-3-3h5-5p3-0---|


Repeat VERSE (3x)

CHORUS


BRIDGE  (repeat 4x)
(“I just want to say hello again…”)
d------------------------------------------
B--x-x--x-x----x-x--x-x----x-x--x-x------x-x-x-x-x-x-x-x--x-x-x--x-x---
G-11/9--9-9----9/7--7-7----7/6--6-6------4/6-6/7-7/6-6/9--9-9-7--7-7---
D--x-x--x-x----x-x--x-x----x-x--x-x------x-x-x-x-x-x-x-x--x-x-x--x-x---
A--9/7--7-7-0--7/5--5-5-0--5/4--4-4-0-0--2/4-4/5-5/4-4/7--7-7/5--5-5-0-
D--0-0--0-0-0--0-0--0-0-0--0-0--0-0-0-0--0-0-0-0-0-0-0-0--0-0-0--0-0-0-
            *           *           * *                              *


d---------------------------------------------------------------------|
B---x--x--x--x-----x--x--x--x-x----x--x--x--x-----x--x--x--x-------3--|
G--15-15-15-15----15-15-15-15-x---15-15-15-15----15-15-15-15-------2--|
D---x--x--x--x-----x--x--x--x-x----x--x--x--x-----x--x--x--x-----0-0--|
A--13-13-13-13-0--13-13-13-13-x---13-13-13-13-0--13-13-13-13-0-0-0-0--|
D---0--0--0--0-0---0--0--0--0-x----0--0--0--0-0---0--0--0--0-0-0-0-0--|
               *                               *              * * * ~


“When you are with me…”
(clean tone - strum chords)
d--0---5/7-5-4---0--0---0------0-------0--0-5/7-----0--0--0------0-----
B--3---x-x-x-x---2--3-------0------0---0--3---------2--3------0------0-
G--2--(0-0-0-0)--0--4-----2------2-----7--2---------0--4----2------2---
D--0--(0-0-0-0)--0--4------------------5--0------0--0--4---------------
A--0--(0-0-0-0)--------4--2------------------5--0------0--4--2---------
D--0-------------0--x------------------5--0------0--0--x---------------


CHORUS

Play “BRIDGE”

OUTRO
(softly fades out…)
d--0---5/7-5-4--0-0-0---0------------------4-4-4-5-5-------------------
B--3---x-x-x-x--0-0-0---3--2-2h3-2-2-------3-3-3-3-3-------------------
G--2--(0-0-0-0)-0-0-2---4--2-2---2-2-----2-2-2-2-2-2---2-2-2h4-2--2-2--
D--0------------0-0-0---4--0-0---0-0-0-0-0-0-0-0-0---0-0-0-0---0--0-0--
A--0------------0-0-4---2------------0-0-0-0-0-0-----0-0-0-0---0--0-0--
D--0------------0-0-0---0------------0-0-0-0-0-------0-0-0-0---0--0-0--


d-5/7-5-4--0-0-0--|
B-x-x-x-x--0-0-0--|
G----------0-0-2--|
D----------0-0-0--|
A----------0-0-4--|
D----------0-0-0--|


KEY: 
         p = pull-off
         x = muffle string(s)
         h = hammer
         * = palm mute
         ~ = let ring








LYRICS:

	Hello my friend we meet again
	It’s been a while where should we begin
	Feels like forever

	Within my heart are memories
	A perfect love that you gave to me
	Oh I remember

	When you are with me
	I’m free
	I’m careless
	I believe
	Above all the others- we’ll fly
	This brings tears to my eyes
	My sacrifice

	We’ve seen our share of ups and downs
	Oh- how quickly life can turn around
	In an instant
	It feels so good to realign
	Within yourself and within your mind
	Let’s find peace there

	When you are with me
	I’m free
	I’m careless
	I believe
	Above all the others- we’ll fly
	This brings tears to my eyes
	My sacrifice

	I just want to say hello again

	When you are with me
	I’m free
	I’m careless
	I believe
	Above all the others- we’ll fly
	This brings tears to my eyes
	My sacrifice

	I just want to say hello again
	
	My sacrifice…
Show more