Author/Artist: Creed 
Title: My Sacrifice 
Album: Weathered 
Tuning: D A D G (low to high) 
Transcribed by: Brett Donegan 
Email: slikice_2002@hotmail.com

This song is awesome! Hope this is right, as it is my first tab. Everything
is pretty much straight forward. Let me know if you have trouble.

Intro/Verse

G--------------------------------------------------------------------
D--------------------------------------------------------------------
A---54455--5-447-45754455--5-447-4572-222-2--2--2245---------------0-  x 3 then
D------------------------------------------4---------5-555-554555----

G--------------------------------------------------------------------
D--------------------------------------------------------------------
A---54455--5-447-45754455--5-447-4572-222-2--2--2245-----------------  4th time
D------------------------------------------2---------5-555-5545577542

Chorus

G--------------------------------------------------------------
D--------------------------------------------------------------
A-----------555----4-444-44456-7---2-222-222345----------------  x 2
D---0-000-00------------------------------------5-55-555303-053

Verse x 2 + modified x 1

Chorus

Bridge
G----------------------------------------
D----------------------------------------
A---------------------------------------- x 4 then
D---0-0--00--0-00--0-00--0-00--0-00-00000

G-------------------                        ------
D-------------------                        ------
A---3/5-55--3/5-55-- repeat, then end with  ------ 
D--0-------0--------                        ---0--

Chorus (guitar only)

Chorus x 1 then

Modified Chorus

G------------------------------------------------------------------------
D------------------------------------------------------------------------
A-----------5-5-5/7-4--44000---------------------------------------------
D---0-000-00----------------3/555h75h777/9-999-999-11-12-5-55-555303-053-

Bridge x 3 + end x 1

End

G-----------
D-----------
A-----------
D---0-0-0---
Show more