Creed
My Sacrifice
Drop D Tuning


Intro	(0:00)
G-----------9---------|----------12-------12-----|
D-----9--------9------|-------12----12-------12--|
A-------9---------9---|---0-10---------10--------|
D--7------7-----------|--------------------------|

G----------------------------------|
D----------------------------------|	
A-----5-44-55~---555-44-77--99--0--|
D--77------------------------------|

G-----------9---------|----------12-------12-----|
D-----9--------9------|-------12----12-------12--|
A-------9---------9---|---0-10---------10--------|
D--7------7-----------|--------------------------|

Intro	
G------------------------------------------------------------------
D------------------------------------------------------------------
A-------------(5)--------------4-5------------(5)-------------4-5--
D---0--0-0--0-------0--0--0--0------0--0-0--0-------0--0-0--0------

G--------------------------------------
D---------------(4)--------------------
A-2--2-2--2---2------2--2---2--2--4/5--
D--------------------------------------

G-------------------------------------
D-------------------------------------
A-------------------------------------
D---5--5-5--5----5---4-5-5-5-7--7--7--

Verse	
G-------------------------------------------------------------------
D-------------------------------------------------------------------
A-----------------(5)------------4-5------------(5)------------4-5--
D---0--0-0--0--0--------0--0-0-0------0--0-0--0-------0-0--0-0------

G------------------------------------
D----------------(4)-----------------
A---2--2-2-2---2------2-2---2-2-4/5--
D------------------------------------

G-------------------------------------------------------------------
D-------------------------------------------------------------------
A-----------------------------------------5---------(5)--------4-5--
D---5--5-5--5--5-5---4-5-5---5-7-7-7---0----0-0---------0-0-0-------

G-----------------------------------
D-----------------------------------
A---------------(5)------------4-5--
D--0--0-0--0----------0-0--0-0------

G--------------------------------------------------------------------------
D----------------(4)-------------------------------------------------------
A--2--2-2--2---2--------2--2---2-2--4/5------------------------------------
D----------------------------------------5--5-5--5---5-5--4-5-5-5/7-7-7-7--

1st and 2nd Chorus  
G----------------------------------------------------------------------
D----------------------------------------------------------------------
A------------------4-5---------------4--4-4--4---4-4--4-5-5-5/7-7-7-0--
D--0--0-0--0--0-0-------0-0---0-0-0------------------------------------

G----------------------------------------------------------------------
D----------------------------------------------------------------------
A--2--2-2--2-2--2-4--4-4-----------------------------------------------
D-------------------------0-0--(5)---5-5---5-5-5--0-5-3-0-(3)---3-5-3--

G-------------------------------------
D-------------------------------------
A-------------------------------------
D---5-5-5--5-5-5-0--5-3-0-(3)---3-3--

4th Chorus  
G--------------------------------------------------------------
D-----------------------------------7-7-7----------------------
A-------------4-5---5-7-7-4---4-4-4---------------0---0-0-0-1--
D-0--0-0--0-0-----0-----------------------2-4-4-5---5----------

1st Bridge  
G------------------------------------------------------------------------
D------------------------------------------------------------------------  X4
A----------5-------------5----------(5)--------5--------------------5-5--
D--0--0-0----0--(0)---0-----0-0--0--------0--0----0-0-0--0-0--0-0-0------


G-----------------------------------------------------------
D-----------------------------------------------------------
A---5-5-5-5----5-5-5-5------5-5-5-5----5-5-5-5--------------
D-0----------0------------0----------0----------0-0-0-0~~~--

2nd Bridge  
G------------------------------------------------------------------------
D------------------------------------------------------------------------  X3
A----------5-------------5----------(5)--------5--------------------5-5--
D--0--0-0----0--(0)---0-----0-0--0--------0--0----0-0-0--0-0--0-0-0------


G-----------------------------------------------------------
D-----------------------------------------------------------
A---5-5-5-5----5-5-5-5------5-5-5-5----5-5-5-5--------------
D-0----------0------------0----------0----------0-0-0-0~~~--

THIS IS ONE OF THE FEW TABS IVE SUBMITTED-BUT IVE SPENT HOURS TRYIN TO GET IT RIGHT FOR EVERYONE! IM PRETTY SURE ITS 90% CORRECT BUT IF IT ISNT LET ME KNOW AT LHOWELL@JRUSTONTC.NET
Thanks

Intro	    X1
Verse	    X1
Chorus	    X1
Intro	    X1
Verse	    X1
Chorus	    X1
1st Brdige   X4
Intelude	    X1
Chorus	    X1
1st Bridge   X4
Intelude	    X1
Show more