Never Die by Creed
Tabbed By: Paul Conrod

This song is pretty easy to play.  If you know bends and power chords then 
you're ok.

Symbols Used In This Tab:
b (bend)
X (palm mute)
h (hammer on)
p (pull off)

Verse/Intro/Outro:
Listen to the CD for exact timing.
E-------------------
B-------------------
G-8b----7b----------
D----8b----7b-------
A-------------------
E-------------------

Chorus:
E--------------------------------------------
B--------------------------------------------
G--------------------------------------------
D-X-X--12-12-12--7-7-7--11-11-11--6-6-6--X-X-
A-X-X--12-12-12--7-7-7--11-11-11--6-6-6--X-X-
E-X-X--10-10-10--5-5-5--9--9--9---4-4-4--X-X-

Interlude:
E-------------------
B-------------------
G-------------------
D-------------------
A-9h10-12-12h13p12--
E-------------------

****************************************************************
Questions? Comments? Improvments?

Email me (Paul) at: skinny_pirate@hotmail.com
ICQ me at: 106872980
http://thepaulman.tripod.com
Show more