#----------------------------------PLEASE NOTE--------------------------------#
#This file is the author's own work and represents their interpretation of the#
#song. You may only use this file for private study, scholarship, or research.#
#-----------------------------------------------------------------------------#
#-- File created with Instab - http://www.pconline.com/~smcarey/instab.html --#
#-----------------------------------------------------------------------------#

Author/Artist: Creed
Title: Ode
Album: My Own Prison
Transcribed by: Adam Strachn
Email: CookieMonster912@hotmail.com

Drop D tuning.

Intro -
---------------------|----------------------------|
---------------------|----------------------------|
---------------------|----------------------------|
-0--0--0--7--0--6~~--|--0--0--0--7--0--6--0--4~~--|
---------------------|----------------------------|
---------------------|----------------------------|
                                                                              
---------------------|----------------------------|
---------------------|----------------------------|
---------------------|----------------------------|
-0--0--0--7--0--6~~--|--0--0--0--7--0--6--0--4~~--|
---------------------|----------------------------|
---------------------|----------------------------|
                                                                              
-------------------------------------------------|
-------------------------------------------------|
-------------------------------------------------|3x
-0--0--0--7--0--6--0--4--0--5--0--2--0--3--2--1--|
-------------------------------------------------|
-------------------------------------------------|
                                                                              
---------------------------------------------------|
---------------------------------------------------|
---------------------------------------------------|
-4^--4^--0-0-0-0--4^--4^--0-0-0-0--4^--4^--4^--4^--|
---------------------------------------------------|
---------------------------------------------------|
                                                                              

Verse – 8x (I think)
-------------------------------------------------|
-------------------------------------------------|
-------------------------------------------------|
-0--0--0--7--0--6--0--4--0--5--0--2--0--3--2--1--|
-0--0--0--7--0--6--0--4--0--5--0--2--0--3--2--1--|
-0--0--0--7--0--6--0--4--0--5--0--2--0--3--2--1--|
                                                                              




Chorus – (strum chords)
--------------------|-----------------------------------------|
--------------------|-----------------------------------------|
-2-------4-------7--|-----------------------------------------|
-0-------2-------5--|-----------------4-----------------------|
-0-------2-------5--|--5--------3--5-----5---3--5--7--3-------|
-0-------2-------5--|-----0--0---------------------------3h4--|
                                                                              
--------------------|-----------------------------------------------|
--------------------|-----------------------------------------------|
-2-------4-------7--|-----------------------------------------------|
-0-------2-------5--|-----------3--4--5-----------3--4--5-----------|
-0-------2-------5--|--3--4--5-----------3--4--5-----------3--5--3--|
-0-------2-------5--|-----------------------------------------------|
                                                                              

Interlude - 
------------------------------------------------------------------------------|
------------------------------------------------------------------------------|
------------------------------------------------------------------------------|
-0--12--11--0--12--11--0--12--11--0--12--11--0--12--11--0--12--11--0--12--11--|
-0--12--11--0--12--11--0--12--11--0--12--11--0--12--11--0--12--11--0--12--11--|
-0--12--11--0--12--11--0--12--11--0--12--11--0--12--11--0--12--11--0--12--11--|
                                                                              
----------------------------|
----------------------------|
----------------------------|
-0--0----1--2--3---3--2--1--|
-0--0----1--2--3---3--2--1--|
-0--0----1--2--3---3--2--1--|
                                                                              
Palm muted -
-------------------------------------------------|
-------------------------------------------------|
-------------------------------------------------|
-0--0--0--7--0--6--0--4--0--5--0--2--0--3--2--1--|
-------------------------------------------------|
-------------------------------------------------|
                                                                              
Then the verse

Then the chorus

Bridge – (palm muted)
----------------------------------------------------------------------|
----------------------------------------------------------------------|
----------------------------------------------------------------------|
----------------------------------------------------------------0--0--|
----------------------------------------------------------------0--0--|
-0-12-11--0-12-11--0-12-11--0-12-11--0-12-11--0-12-11--0-12-11--0--0--|
                                                                              
---------------------|
---------------------|
---------------------|
---------------------|
-1--2--3----3--2--1--|
-1--2--3----3--2--1--|

Outro - 
------------------------------------|--------|----------------------------|
------------------------------------|--------|----------------------------|
------------------------------------|--------|----------------------------|
-0~~~-----0--0---1--2--3---3--2--1--|---0~~--|--0--0---1--2--3---3--2--1--|
-0~~~-----0--0---1--2--3---3--2--1--|---0~~--|--0--0---1--2--3---3--2--1--|
-0~~~-----0--0---1--2--3---3--2--1--|---0~~--|--0--0---1--2--3---3--2--1--|                                                                          

-----------|
-----------|
-----------|
-----0~~~--|
-----0~~~--|
-----0~~~--|
Show more