Creed 
Ode
Drop-D Tuning (DADGBe)
Tabbed By: lilguitardude515

Intro (Distorted)
e-----------------------------------
B-----------------------------------
G-----------------------------------
D-0-0-0-7-0-6~~~--0-0-0-7-0-6-0-4~~~
A-----------------------------------
D-----------------------------------

e-----------------------------------
B-----------------------------------
G-----------------------------------
D-0-0-0-7-0-6~~~--0-0-0-7-0-6-0-4~~~
A-----------------------------------
D-----------------------------------

e-----------------------------------
B-----------------------------------
G-----------------------------------
D-0-0-0-7-0-6~~~--0-0-0-7-0-6-0-4~~~
A-----------------------------------
D-----------------------------------

e-----------------------------------
B-----------------------------------
G-----------------------------------
D-0-0-0-7-0-6~~~--0-0-0-7-0-6-0-4~~~
A-----------------------------------
D-----------------------------------
Show more