#----------------------------------PLEASE NOTE--------------------------------#
#This file is the author's own work and represents their interpretation of the#
#song. You may only use this file for private study, scholarship, or research.#
#-----------------------------------------------------------------------------#
#-- File created with Instab - http://www.pconline.com/~smcarey/instab.html --#
#-----------------------------------------------------------------------------#

Author/Artist: Creed
Title: Ode
Album: My Own Prison
Transcribed by: Bryan Jarvinen
Email: ibanezgsr200bass@yahoo.com

Here is another awesome Creed song. It's a kinda fast song, but after a while 
you get used to it. The harmonic in the intro I think is right, if not it was 
the closest I could get. With the chorus, I put the main part, followed by all
the fills there are, you can figure out what order they go in. Have fun. Drop-D
tuning.

Intro - 

-|----------------------------------|-
-|---------19*------------------19*-|-
-|----------------------------------|-
-|-0-0-0-0-----0-0-0-0--0-0-0-0-----|-
                                                                              
Pre-Verse/Part 2 of Intro -

-|---------------------------------|-
-|-0-0-0-7-0-6-0-4-0-5-0-2-0-3-2-1-|-
-|---------------------------------|-
-|---------------------------------|-
                                                                              
Verse -

-|---------------------------------|-
-|---------------------------------|-
-|---------------------------------|-
-|-0-0-0-7-0-6-0-4-0-5-0-2-0-3-2-1-|-
                                                                              
Main Chorus Riff - 

-|-----------------------------------------------------------------------|-
-|-----------------------------------------------------------------------|-
-|-----------------------------------------------------------------------|-
-|-0-0-0-0-0-0-0-0-0-2-2-2-2-2-2-2-2-2-2-2-2h4-5-5-5-5-5-5-5-5-5-5-5-5-5-|-
                                                                              
Chorus Fills -

-|------------------------|-------------------------------|-
-|---------3-------3------|-------3h4h5-------3h4h5-------|-
-|-5---3h5---5-3h5---5-3b-|-3h4h5-------3h4h5-------3h5p3-|-
-|---0--------------------|-------------------------------|-
                                                                              
Interlude/Another Chorus Fill -

-|-------------------------------------------------------------------------|-
-|-------------------------------------------------------------------------|-
-|-------------------------------------------------------------------------|-
-|-0-12-11-0-12-11-0-12-11-0-12-11-0-12-11-0-12-11-0-12-11-0-12-11-0-3-4-5-|-
                                                                             
-|-------|-
-|-------|-
-|-------|-
-|-5-4-3-|-
                                                                              
Interlude/Ending -

-|----------------|-
-|----------------|-
-|----------------|-
-|-0~--3-4-5-5-4-3|-

There ya go. That took me a while to figure it all out, so I hope it helps you
out. Questions or comments to my e-mail.
Show more