Creed
Ode

Transcribed By: Ryan Huntsman  (IbanezBassMX)
Email: Ryan82184@aol.com

Drop D tunning

this song is really fast so you will have to get use to it.
Song Structure is below.

Intro 1
G---------------------------------------------
D---------------------------------------------   
A---------------------------------------------
D-0-0-0-0-----0-0-0-0-----0-0-0-0--0-0-0-0-0--

Intro 2
G----------------------------------
D-0-0-0-7-0-6-0-4-0-5-0-2-0-3-2-1--   
A----------------------------------
D----------------------------------

Verse
G----------------------------------
D----------------------------------   
A-0-0-0-7-0-6-0-4-0-5-0-2-0-3-2-1--
D----------------------------------   

Chorus
G------------------------------------------------------------------------
D------------------------------------------------------------------------
A------------------------------------------------------------------------
D-0-0-0-0-0-0-0-0-0-2-2-2-2-2-2-2-2-2-2-2-2h4-5-5-5-5-5-5-5-5-5-5-5-5-5--

Part A                             Part B 
G----------------------------     G--------------------------------
D-----------3---------3------     D-------3h4h5-------3h4h5--------
A-5-----3-5---5~--3-5--------     A-3h4h5-------3h4h5-------3-5-3--
D---0-0-----------------5-3--     D--------------------------------
                                                                     
Interlude
G--------------------------------------------------------------------
D--------------------------------------------------------------------
A--------------------------------------------------------------------
D-0-12-11-0-12-11-0-12-11-0-12-11-0-12-11-0-12-11-0-12-11-0-12-11-0--

G-----------------
D-----------------
A-----------------
D-0-1-2-3--3-2-1--

Outro
G-----------------------
D-----------------------
A-----------------------
D-0~~-0-0-1-2-3--3-2-1--

Thats all of it.
the chorus is played and then part A, 
then the chorus is played again and Part B is played after that.
Please rate this tab, Thanks.

Song Structure:

Intro 1    X1
Intro 2    X4
Verse      X7
Chorus     X1
Part A     X1
Chorus     X1
Part B     X1
Chorus     X1
Part A     X1
Chorus     X1
Interlude  X2
Intro 2    X4
Verse      X7
Chorus     X1
Part A     X1
Chorus     X1
Part B     X1
Chorus     X1
Part A     X1
Chorus     X1
Part B     X4
Interlude  X6
Chorus     X1
Part A     X1
Chorus     X1
Part B     X1
Chorus     X1
Part A     X1
Chorus     X1
Interlude  X4
Outro      X2

The End  (finally)
Show more