e------------------------------------------------------------ 
B------------------------------------------------------------ 
G------------------------------------------------------------ 
D--------------------11--11-11-11--9--11/14(b)/--9--9-9-9-9-- 
A-**7-7-7-6-6-6h7p0---0---0--0--0--0---0---------7--7-7-7-7-- 
E---9-9-9-9-9-9---0-----------------------------(0)(0-0-0-0)- 
(** slight palm mute) 
 
 
                                      First 
e-------------------------------------Time---| 
B-------------------------------------Only---| 
G-------------------------------------|------| 
D--9-9-9-9--00-----------------------'.'-----| 
A--7-7-7-7--00--9--9-9-9-9--9-9-9-9/(14)-----| 
E-(0-0-0-0)-----7--7-7-7-7--7-7-7-7/(12)-----| 
 
 
 
  II 
e--------------------------------------------------- 
B--------------------------------------------------- 
G--------------------------------------------------- 
D---------------------11--11-11-11-9--11--11-11-11-- 
A-**7-7-7-6-6-6h7p0----0---0--0--0-0---0---0--0--0-- 
E---9-9-9-9-9-9------------------------------------- 
 
 
 
                                                     |  I      | 
e----------------------------------------------------|---------| 
B----------------------------------------------------|---------| 
G----------------------------------------------------|-(sings)-| 
D--9--9-9-9-9---9-9-9-9--00--------------------------|-(first)-| 
A--7--7-7-7-7---7-7-7-7--00--9--9-9-9-9--9-9-9-9-00--|-(verse)-| 
E-(0)(0-0-0-0)-(0-0-0-0)-----7--7-7-7-7--7-7-7-7-00--|---------| 
 
 
 
  II  |  III 
e-----|--------------------------------------------------------- 
B-----|--------------------------------------------------------- 
G-----|--------------------------------------------------------- 
D-----|--------------------11--11-11-11--9--11--9--9--9-9-9-9--- 
A-----|-**7-7-7-6-6-6h7p0---0---0--0--0--0---0--0--7--7-7-7-7--- 
E-----|---9-9-9-9-9-9-----------------------------(0)(0-0-0-0)-- 
 
 
 
 
 
e----------------------------------------| 
B----------------------------------------| 
G----------------------------------------| 
D---9-9-9-9--00--------------------------| 
A---7-7-7-7--00--9--9-9-9-9--9-9-9-9-00--| 
E--(0-0-0-0)-----7--7-7-7-7--7-7-7-7-00--| 
 
 
 
  IV 
e------------------------------------------------------------ 
B------------------------------------------------------------ 
G------------------------------------------------------------ 
D--------------------11--11-11-11--9-11-11-11-9--9--9-9-9-9-- 
A-**7-7-7-6-6-6h7p0---0---0--0--0--0--0--0--0-0--7--7-7-7-7-- 
E---9-9-9-9-9-9---------------------------------(0)(0-0-0-0)- 
 
 
 
e----------------------------------------| 
B----------------------------------------| 
G----------------------------------------| 
D---9-9-9-9--00--------------------------| 
A---7-7-7-7--00--9--9-9-9-9--9-9-9-9-00--| 
E--(0-0-0-0)-----7--7-7-7-7--7-7-7-7-00--| 
 
 
 
  V  (One- oh one...) 
e--------------------------------------------------------- 
B--------------------------------------------------------- 
G--------------------------------------------------------- 
D--------------------11--11-11-11--9--11--11-11-11/14(b)-- 
A-**7-7-7-6-6-6h7p0---0---0--0--0--0---0---0--0--0-------- 
E---9-9-9-9-9-9------------------------------------------- 
 
 
                                                     |  II  | 
e----------------------------------------------------|------| 
B----------------------------------------------------|------| 
G----------------------------------------------------|------| 
D--9--9-9-9-9---9-9-9-9--00--------------------------|------| 
A--7--7-7-7-7---7-7-7-7--00--9--9-9-9-9--9-9-9-9-00--|------| 
E-(0)(0-0-0-0)-(0-0-0-0)-----7--7-7-7-7--7-7-7-7-00--|------| 
 
 
 Chorus  2x 
 
e-------------------------- 
B-------------------------- 
G--4-----x-----6-----x----- 
D--4-----4-----6-----6----- 
A--2-----4-----4-----6----- 
E--x-----2-----x-----4----- 
 
 
 
 
  I   |  II     |  I   |  II  |  III  |  I        |  II  | 
e-----|---------|------|------|-------|-----------|------| 
B-----|---------|------|------|-------|--(GTR 1)--|------| 
G-----|-(sings)-|------|------|-------|--(Cont.)--|------| 
D-----|--(2nd)--|------|------|-------|-----------|------| 
A-----|-(verse)-|------|------|-------|-----------|------| 
E-----|---------|------|------|-------|-----------|------| 
 
 
 Repeat Chorus (4x) 
 
 
(3:01 sec.) 
 Bridge 2x 
e--------2~ ---0-------------4~ --------------- 
B--------2~ -----0-----------4~ --------------- 
G------4-----------3/ -----6-----------6----5-- 
D----4-------------------6-----------6--------- 
A--2-------------------4-----------6------6---- 
E------------2-------------------4------------- 
 
 
e--------------------------------------------------------------- 
 
B-------4-------(4)-------4------5--------4------5-------------- 
G---------4-------(4)-------4------4--------4------4--(7)/9----- 
D-**444-------------**444------4----**444------4-------x--x----- 
A-----------------------------------------------------(5)/7----- 
E--------------------------------------------------------------- 
(**slight palm mute) 
 
 
e------------------------------------------------------------| 
B-------4-------(4)-------4------5--------4------5-----------| 
G---------4-------(4)-------4------4--------4------4---9-----| 
D-**444-------------**444------4----**444------4-------x-----| 
A------------------------------------------------------7-----| 
E------------------------------------------------------------| 
 
 
           | 6x  (fade out) 
e----------|----------------------------------------------------| 
B----------|----------------------------------------------------| 
G--Chorus--|--4------------------------6------------------------| 
D----2x----|--4------------------------6------------------------| 
A----------|--2---------4-----4---4----4---------6-----6---6----| 
E----------|--x-----222---222---2---2--x-----444---444---4---4--| 
 
 
 
 
 
 
 
 
 
 
 
 GUITAR 2   (distortion) 
 
 (2:01-2:02)   | (2:06-2:09)       (One- Oh one...) 
e----softly----|------------------------------------------------- 
B--------------|------------------------------------------------- 
G------**------|----**---------------6~ --x-------**------------- 
D----666666----|--9999999---**-------6~ --7~ ---9999999---**----- 
A----444444----|--7777777-9999999----4~ --7~ ---7777777-9999999-- 
E--------------|----------7777777---------5~ -----------7777777-- 
 
 
 
  (One- Oh one...)            (2:24) ^ = Harmonic 
e------------------------------------------------------------ 
B------------------------5^5^5^--9^--7^7^--6^--7^7^7^-7^-7^-- 
G---6~ --x-------**------------------------------------------ 
D---6~ --7~ ---9999999--------------------------------------- 
A---4~ --7~ ---7777777--------------------------------------- 
E--------5~ ------------------------------------------------- 
 
 
 
           | Pick Slides @ 
e----------|(2:46-2:48, 2:50-2:52)---| 
B----------|(2:55-2:56, & 2:59-3:00)-| 
G--Chorus--|-------------------------| 
D----2x----|-------------------------| 
A----------|--x---------------------| 
E----------|--x---------------------| 
                   
 
 
 
 (start at 3:01)  2x 
e-----------------------------------| 
B-----------------------------------| 
G---4~ -----x-------6~ -----x-------| 
D---4~ -----4~ -----6~ -----6~ -----| 
A---2~ -----4~ -----4~ -----6~ -----| 
E---x-------2~ -----x-------4~ -----| 
 
 
 
 (start at 3:19)                       | 
e---------------------------|----------| 
B---------------------------|----------| 
G---x-----x-----x-----9-----|--Chorus--| 
D---9-----9-----7-----9-----|----2x----| 
A---9-----9-----7-----7-----|----------| 
E---7-----6-----5-----x-----|----------| 
 
 
 
 
 
 
 
 6x (fade out) 
e----------------------------------------------------| 
B----------------------------------------------------| 
G--4------------------------6------------------------| 
D--4------------------------6------------------------| 
A--2---------4-----4---4----4---------6-----6---6----| 
E--x-----222---222---2---2--x-----444---444---4---4--| 
 
 
 
 KEY: h = hammer 
      P = pull off 
     (b)= slight bend 
      x = muffle string(s) 
      ~ = hold
Show more