TUNING:E,A,D,G
START PLAYIN AFTER 4 SECONDS

INTRO
G)------I
D)------I
A)-7----I
E)---7--I x1

VERSE
G)-----------------------------------I
D)-----------------------------------I
A)---------------777777--------------I
E)-444444-555555--------77777777-----I x7

CHORUS
G)-------------------------------------------I
D)-------------------------------------------I
A)-2-2-2-2---------4-4-4-4-------------------I
E)---------2-2-2-2---------4-4-4-4-----------I x2

BRIDGE
G)--------------------------------------------------------------------------I
D)--------------------------------------------------------------------------I
A)-2---4---2---4---2222-2--------4444-4--------2222-2--------4444-4---------I
E)---2---4---2---4--------2222-2--------4444-4--------2222-2--------4444-4--I 

ORDER:

INTRO,
VERSE,
CHORUS,
VESE,
CHORUS, - PLAY THIS CHORUS THOUGH 4 TIMES,
BRIDGE,
CHORUS, - PLAY THIS CHORUS THOUGH 8 TIMES.
Show more