Tabbed By: João Vitor 
E-Mail: joaovitorlisboa@live.com

Verse
G|----------------------------------------------------|
D|------------------------------------7p9p7p9p7-------|
A|-----------------77777777---------------------9-----|
E|9999999--555555------------7777777------------------|

Chorus
G|--------------------------------------------|
D|--------------------------------------------|
A|-222222------------444444-------------------|
E|--------2222222-----------444444------------|

Bridge 3:01
G|---------------------|
D|---------------------| 2x
A|-2~-----4~-----------|
E|----2~-----4~--------|

G|------------------------|
D|------------------------|
A|-2~------0~-------------| 2x
E|----2~-----0~-----------|

Outro
G|-------------------------------|  
D|-------------------------------|  
A|--22222222-----444------444----|
E|-----------222------222--------|
                                           Repeat until ends
G|-------------------------------|
D|-------------------------------|
A|-44444444------666-------666---|
E|-----------444------444--------|
Show more