Artist: Creed
Song: Pity For A Dime
Album: My Own Prison
Written by: Tremonti/Stapp
Tabbed by Eric DiRezze, David Sobka & Waldon Reed



 Intro
e-------0--------------------------------------------------
B--0--0-0----4-4----------------5p4--------5--5------------
G--9--9-9-(0)4-4-4------------6-----6------6--6------------
D--9--9-9-(0)4-x-4----------6---------67--7--7------------
A--7--7-7-(0)4-7-6-6h7p6-4-----------------7--7--------9-7-
E--0--0------------------------------------5--5--0-57-----


 Verse
e--0-0------------------------------------5--5------------|
B--0-0----4-4-----------------5p4---------5--5------------|
G--9-9-(0)4-4--4------------6-----6-------6--6------------|
D--9---(0)4-4--4----------6---------67---7--7------------|
A------(0)4-7--6-6h7p6-4------------------7--7--------9-7-|
E-----------------------------------------5--5--0-57-----|


 (@ :41sec.)
e-------------------------------------------
B--0--0--------5----------4--4--4--7-7-7-7--
G--9--9--6-------4-6------5--5--5--8-8-8-8--
D--9--9----6---------6----6--6--6--9-9-9-9--
A--7--7------4---------4--6--6--6--9-9-9-9--
E-(0)(0)------------------4--4--4--7-7-7-7--


e------------------------------------------|
B--0--0--------5----------4--4--4--5-5-5-5-|
G--9--9--6-------4-6------5--5--5--6-6-6-6-|
D--9--9----6---------6----6--6--6--7-7-7-7-|
A--7--7------4---------4--6--6--6--7-7-7-7-|
E-(0)(0)------------------4--4--4--5-5-5-5-|

 Repeat Verse
 Chorus  1
e------------------------------|
B--0--------------(0)----------|
G--9-------4-------4-----3-----|
D--9-------5-------4-----4-----|
A--7-------5-------2-----4-----|
E-(0)------3-------------2-----|

 Play 2x
e--0---0-0--0-3-0-0-0-0-0--0--|-----------------------
B--0---0-0--0-0-0-0-3-0-0--0--|---------2nd Time------
G--1---1-1--1-1-1-1-1-2-1--1--|------w/ distortion----
D--2---2-2--2-2-2-2-2-2-2--2--|-----------------------
A--2---2-2--2-2-2-2-2-2-2--2--|-----------------------
E--0---0-0--0-0-0-0-0-0-0--0--|--3-0-0-3-0-0--3(b)-0--


 (@ 2:16)  THREE TIMES
e--0--0--3-3-3-3-3-0--0-0-0--0-0-0-----------------------------
B--0--0--0-0-0-0-0-3--3-3-3--3-3-3-----------------------------
G--1--1--1-1-1-1-1-1--1-1-1--1-1-1--5-5-5-x--4-4-4-x-----------
D--2--2--2-2-2-2-2-2--2-2-2--2-2-2--5-5-5-5--4-4-4-4-----------
A--2--2--2-2-2-2-2-2--2-2-2--2-2-2--3-3-3-5--2-2-2-4---45-45-
E--0--0--0-0-0-0-0-0--0-0-0--0-0-0--x-x-x-3--x-x-x-2-0-23-23-


 4th  Time  (2:45sec.)
e--0--0--3-3-3-3-3-0--0-0-0--0-0-0---------------------------
B--0--0--0-0-0-0-0-3--3-3-3--3-3-3---------------------------
G--1--1--1-1-1-1-1-1--1-1-1--1-1-1------------------5-5-5-x--
D--2--2--2-2-2-2-2-2--2-2-2--2-2-2--7-6-5-----------5-5-5-5--
A--2--2--2-2-2-2-2-2--2-2-2--2-2-2--------7-6-5-----3-3-3-5--
E--0--0--0-0-0-0-0-0--0-0-0--0-0-0--------------7-5-x-x-x-3--


                     | (@2:55)              | end fill
e--------------------|----------------------|--0------0------|
B--------------------|-----------(0)--------|----0------0----|
G--4-4-4-x-----------|--1----4----4----3-----------3------3--|
D--4-4-4-4-----------|--2----5----4----4---------------------|
A--2-2-2-4---45-45-|--2----5----2----4---------------------|
E--x-x-x-2-0-23-23-|--0----3---------2---------------------|


---------------|------------|
---Chorus  1---|--Chorus 1--|
--w/ end fill--|-----2x-----|
---------------|------------|


 Solo (@ 3:35)                    + = Pinch Harmonic
e-------------------------------------------------------------
B-------------------------------------------------------------
G-------------------------12----14+ --------------------------
D--7b-7(b)p5---5~ --12-14----14-------------------------------
A------------7------12---------------------10-12h13p12-10-----
E------------------------------------10-12----------------12--

e--15------14--------------------------------------------
B-----15------14---15-~ -------------------13-13-12-12--
G-------------------14b~ ----------5-5-4--4--------------
D--------------------------------------------------------
A---------------------------3-2-2------------------------
E--------------------------------------------------------


e------------------------------------------------------------
B----0-15----------------------------------------------------
G--0---14b-14(b)p12-----12-12-------------------------12-----
D--------------------14-------14-------12----------------14--
A--------------------------------12-14----14--14-12-14-------
E------------------------------------------------------------


e---------------------------------------------------
B--12-12-12h13p12----12-----------------------------
G-----------------14----14-12-11h12p11--9-11-9-8----
D------------------------------------------------9--
A---------------------------------------------------
E---------------------------------------------------


(slightly muffled)
 2x
e---------------------------------------|
B---------------------------------------|
G----------------8-9-10-9-8-------------|
D---------7-9-10------------10-9-7------|
A--7-9-10--------------------------7-9--|
E---------------------------------------|


e------------------------------------------
B------------------------------------------
G----------------8-9-11-8-9----8-----------
D---------7-9-10------------10---9-10-7-9--
A--7-9-10----------------------------------
E------------------------------------------


e--12-12-14p12-14-15-14p12-17p12-14-15-14p12-14p12-14-15--
B---------------------------------------------------------
G---------------------------------------------------------
D---------------------------------------------------------
A---------------------------------------------------------
E---------------------------------------------------------









e--14p12-17p12-14-15-14p12-14p12-12-12-14p12-12-12-15-12--
B---------------------------------------------------------
G---------------------------------------------------------
D---------------------------------------------------------
A---------------------------------------------------------
E---------------------------------------------------------

e--14-15-17-14-15-17-18b--|
B-------------------------|
G-------------------------|
D-------------------------|
A-------------------------|
E-------------------------|


 After Solo
---------------|------------|---------------|------------|
---Chorus 1----|--Chorus 1--|---Chorus 1----|--Chorus 1--|
--w/ end fill--|------------|--w/ end fill--|------------|
---------------|------------|---------------|------------|


e--0--0--3-3-3-3-3-0--0-0-0--0-0-0-----------------------------
B--0--0--0-0-0-0-0-3--3-3-3--3-3-3-----------------------------
G--1--1--1-1-1-1-1-1--1-1-1--1-1-1--5-5-5-x--4-4-4-x-----------
D--2--2--2-2-2-2-2-2--2-2-2--2-2-2--5-5-5-5--4-4-4-4-----------
A--2--2--2-2-2-2-2-2--2-2-2--2-2-2--3-3-3-5--2-2-2-4---45-45-
E--0--0--0-0-0-0-0-0--0-0-0--0-0-0--x-x-x-3--x-x-x-2-0-23-23-


                                                    | 3x
e--0--0--3-3-3-3-3-0--0-0-0--0-0-0------------------|----------
B--0--0--0-0-0-0-0-3--3-3-3--3-3-3------------------|----------
G--1--1--1-1-1-1-1-1--1-1-1--1-1-1------------------|-5-5-5-x--
D--2--2--2-2-2-2-2-2--2-2-2--2-2-2--7-6-5-----------|-5-5-5-5--
A--2--2--2-2-2-2-2-2--2-2-2--2-2-2--------7-6-5-----|-3-3-3-5--
E--0--0--0-0-0-0-0-0--0-0-0--0-0-0--------------7-5-|-x-x-x-3--


e--------------------|--3~ -----
B--------------------|--0~ -----
G--4-4-4-x-----------|--1~ -----
D--4-4-4-4-----------|--2~ -----
A--2-2-2-4---45-45-|--2~ -----
E--x-x-x-2-0-23-23-|--0~ -----


 KEY: h = hammer
      P = pull off
       = slide
      x = muffle string(s)
Show more