This is a great song.  THIS WILL TAKE A WHILE TO GET!!!
LISTEN TO THE MUSIC AND KEEP TRYING.  I AM SURE 
OF THIS TAB!  IT IS 100% CORRECT EXCEPT FOR SOME
PARTS ON THE SOLO.  IF YOU HAVE ANY QUESTIONS OR 
CORRECTIONS, E-MAIL ME AT     Frontlorne1@yahoo.com  
REMEMBER, IT IS NOT THAT DIFFICULT, JUST TRY!.. sorry some 
this is messed up.. it was my first time.. i'll do better 
next time..lol.. sorry


Standard Tuning

Part1:
E-----------------------------------------------------------------------------     B------------------------------5------------------------5p4--------------
G--9-9-9--9-9--9--9------------6---------------------6------6-----6-6--------(6X's)
D--9-9-9--9-9--9--9------------6-------------------6----------6---7-7---------------
A--7-7-7--6-6--7--6---6h7p6----4(keep this chord)------------7-7-----------------9-7
E--------------------------------------------------------------------5-5--0-5/7-7-

Part 2:
then this
E----------0-------4-4-4--7--------------0-----------------5-----------
B-----------0------4-4-4--7---------------0--------------- 5-----------
G--7-7---6---6-----5-5-5--8------7-7--6----6-------5-5-5---6-----------  (1X)
D--7-7----6---6----6-6-6--9------7-7---6----6------6-6-6---7-----------
A--9-9-------------6-6-6--9------9-9---------------6-6-6---7-----------
E------------------4-4-4--7------------------------4-4-4---5-----------

Then:
Part 1 Again  (4X?s)

Then: 
Part 3: (strum)
E----------------3--------------------------------------------------------
B----------------3--------------------------------------------------------
G---9------------4------------4------------1------------------------------(4X?s)   
D---9------------5------------4------------2------------------------------
A---7------------5------------2------------2------------------------------
E----------------3-------------------------0------------------------------






Then:
Part 4:
E---------3-2-3--0-0----------------------------------------------------
B---------0-0-0--0-0----------------------------------------------------
G---1-1---1-1-1--1-1----------------------------------------------------2X?s)
D---2-2---2-2-2--2-2---------------------------------------------(on 2nd time, kick 
A---2-2---2-2-2--2-2--------------------------------------------- dist.)
E---0-0---0-0-0--0-0--0-0-3-0-0-3-0-3-----------------------------------

Then 
Part 5: weird rhythm on first 2 chords.
E-------------------------------------------------------------------------
B-------8---7-------------------------------------------------------------
G-------7---7---------5-5-5-----------4-4-4-------------------------------
D-------6---6---------5-5-5--5-5-5--4-4-4--4---4-4-4-4-------------------- (4X?s)
A-------7---7---------3-3-3--5-5-5--2-2-2--4---4-4-4-4--------------------
E----0-----------------------3-3-3---------2---0-2-0-2--------------------

On fourth time on part 5, add this:
E--------------------------------------------------------------
B--------------------------------------------------------------
G--------------------------------------------------------------
D------7--5----------------------------------------------------
A-------------7-6-5--------------------------------------------
E----------------------7-6-5-----------------------------------

Then: 
Part 6:
E------------3--------0--------------------------0--0------------------
B------------3--------0----------------------------0--0----------------
G------7----4----4----3---(hold this chord)----------3---------------(4X?s)
D------7----5----4----4-----------------------------------4------------
A------9----5----2----4------------------------------------------------
E------------3--------2------------------------------------------------


Then:
Solo:
E-----------------------------------------------------15---14------------------
B------------2------------------------------------------15---14--------15b--hold-
G---2b-2p0--0---------12-------------------2b-0------------------------14b------
D----------------12-14---14-14*---0-2-0------------------------------------
A-------------------------------------------------------------------------------
E-------------------------------------------------------------------------------


E----------------------------------------------------------------------------
B------------------13-13-12-12----15b-15b------------------------------------
G---------5 5-4 4-----------------14b-14b---14p12-----12--12-----------------
D------------------------------------------------------------14-----------14-
A-3 3-2 2--------------------------------------------------------------------
E----------------------------------------------------------------------------

E---------------------------------------------------------------
B---------------------------------------------------------------
G---------------------------------------------------------------
D------------12----------------------12-------------------------
A--12--14-------14--14--12--14------14v-------------------------
E---------------------------------------------------------------

E--------------------------------------------------------------------------
B--12-12-12h13p12------12--------------------------------------------------
G------------------------14-----14-12-11h12p11----11-----------------------
D-----------------------------------------------------14----14-13----------
A-------------------------------------------------------------------14-----
E--------------------------------------------------------------------------

MUTED FAST!!!
E---------------------------------------------------------------
B--------------------------*1/2 is at 13------------------------
G---------------------------------------------------------------
D------------------------13------------------------------------ (2 ? X?s)
A------------12-14-15------15-14-12-----------------------(listen to it!)
E-12-14-15----------------------------15-14-12------------------

Then:
E-------------------------------------------------------------
B-------------------------------------------------------------
G-------------------------------------------------------------
D--13-13-13h14p13-----13--------------------------------------
A-----------------------15-----15--12-12-12-14----------------
E-------------------------------------------------------------

FAST!!!
E-12-12-15-12-14-15-14-12-17-12-14-15-14-12-15-12-14-15-14-12-17-12-14-15-14-12
B----------------------------------------------------------------------------      G----------------------------------------------------------------------------
D----------------------------------------------------------------------------      A----------------------------------------------------------------------------      E----------------------------------------------------------------------------


Then:
E-12-14-15---14-15-16-15-17-18b------------------------------
B-------------------------------------------------------------
G-------------------------------------------------------------
D-------------------------------------------------------------
A-------------------------------------------------------------
E--------------------------------------------------------------

Part 6:  (4X?s)

Part 5:
Show more