Band: Creed
Song: Pity for a Dime
Tabbed by Marc
Tuning: EADG

Verse
G|------------------------------------------|
D|*----------------------------------------*|
A|*-7--7-7-0-4-7-6-6h7p6-4~------------9-7-*|
E|---------------------------5-5-0-5-7------|

Chorus
G|-------------------------------------------------------------------|
D|*------------------------------------------------------------------|
A|*-7--7--7-7-7-7-7-7-7-----------------------2-2-2------------------|
E|-----------------------3--3--3-3-3-3-3-3-3--------2--2-2-2-2-2-2-2-|

Interlude
G|--------------------------------------------------------|
D|*------------------------------------------------------*|
A|*---------5h7-----7---7-7-7/10----5h7---10p7-7--10p7-7-*|
E|---0--0-0-----0-0---0-----------0-----0-----------------|

("Plain talk can be the easy way...")
G|----------------------------------------------------------------------------------------|
D|----------------------------------------------------------------------------------------|
A|--------5h7---7---7-7-7/10-10-------------10p7---10---10/14--3-3-3---2-2-2--------------|
E|-0--0-0-----0---0--------------0--0-0-0-0------0----0--------------3-------2--0-2/3-2/3-|

("Signs of losing my faith...")					
G|--------------------------------------------------------------------------------------|
D|--------------------------------------------7-6-5-------------------------------------|
A|--------5h7---7---7-7-7/10-10----5h7---7----------7-6-5-----3-3-3---2-2-2-------------| 
E|-0--0-0-----0---0--------------0-----0---0--------------7-5-------3-------2-0-2/3-2/3-|
					

Chorus

Solo - Just play the riffs above

Chorus

outro
G|--------------------------------------------------------------------------------------|
D|--------------------------------------------7-6-5-------------------------------------|
A|--------5h7---7---7-7-7/10-10----5h7---7----------7-6-5-----3-3-3---2-2-2-------------| 
E|-0--0-0-----0---0--------------0-----0---0--------------7-5-------3-------2-0-2/3-2/3-|

G|------------------------------------------------------|
D|------------------------------------------------------|
A|-3-3-3---2-2-2-------------3-3---2-2-2----------------|
E|-------3-------2-0-2/3-2/3-----3-------2-0-2/3-2/3-0~-|
Show more