Band: Creed
Song: Pity for a Dime
Album: My Own Prison
Tabbed by  THECREEDFANATIC (jeffthealien@hotmail.com)


Standard tuning: EADG


riff1 
G|-9--9-9-9-9-9p8-8-8h9p8p6-6----|--------11-|
D|-----------------------------7-|---9-11----|
A|-------------------------------|-7---------| x6
E|-------------------------------|-----------|
	"An artificial season..."

riff2
G|------------------|--------------------|------------------|--------------------|
D|------------------|--------------------|------------------|--------------------|
A|-7--7--4--4-4-4-4-|--------------------|-7--7--4--4-4-4-4-|--------------------| 
x1
E|------------------|-4--4-4--7--7-7-7-7-|------------------|-4--4-4--5--5-5-5-5-|


riff3 (2:nd verse?)
G|-------------------------------|---------|
D|-------------------------------|---------|
A|-7--7-7-7-7-7p6-6-6h7p6p4-4--0-|-------9-| x4
E|-------------------------------|-0-7-9---|
	"Shadows paint the sidewalk..."

riff4 (Chorus?)
G|---------------------|---------------------|------------------------|
D|---------------------|---------------------|---4--------------------|
A|-7--7--7-7-7-7-7-7-7-|---------------------|-2---2------------------| x4
E|---------------------|-3--3--3-3-3-3-3-3-3-|-------2--2-2-2-2-2-2-2-|
	"So I sat down for a while..."

riff5
G|---------------------------|----------------------------|
D|---------------------------|----------------------------|
A|--------5h7---7---7-7-7/10-|------------10p7---10p7-7p5-| x2
E|-0--0-0-----0---0----------|-0--0-0-0-0-----0-----------|

riff6
G|------------------------------|---------------------------------|---------------------------------|
D|------------------------------|---------------------------------|---------------------------------|
A|--------5h7---7---7-7-7/10-10-|---------------10p7---10---10/14-|-3-3-3------2-2-2----------------|
E|-0--0-0-----0---0-------------|-12p0--0-0-0-0------0----0-------|-------3--3-------2--2-2-0-2-3-2-|(0)
					"Plain talk can be the easy way..."

G|------------------------------|---------------------------------|---------------------------------|
D|------------------------------|----------------5-4-3------------|---------------------------------|
A|--------5h7---7---7-7-7/10-10-|----------------------5-4-3------|-3-3-3------2-2-2----------------| 
x2
E|-0--0-0-----0---0-------------|-12p0--0-0-0-0--------------6-3--|-------3--3-------2--2-2-0-2-3-2-|(0)
					"Signs of losing my faith..."

riff4 (Chorus) x4

riff6 (guitarsolo) x2

riff4 (Chorus) x4

riff6 x1

outro
G|-----------------------------------|-----------------------------------|---|
D|-----------------------------------|-----------------------------------|---|
A|-3-3-3------2-2-2------------------|-3-3-3------2-2-2------------------|---|
E|-------3--3-------2--2-2-0-2-3-2-0-|-------3--3-------2--2-2-0-2-3-2-0-|-0-|


It will take a while to get use to the rhythm, but it jsut takes some work.
Show more