Band: Creed
Song: Say I
CD: Human Clay
Tabbed by: BlindedRhythm
E-mail: MndlessGuitarist@hotmail.com

Tuning: Drop D (D A D G B E)

Intro/Chorus
|----------------------------------------------------|
|----------------------------------------------------|
|-5-5---5---3---3-----3----------7--------5-7-7b---5-|
|-3-3-0-5-0-1-0-3-0-0-3--0-0-0-0-7-0-0--0-5-7-7b---5-|
|-3-3-0-3-0-1-0-1-0-0-1--0-0-0-0---0-0--0------------|
|-3-3-0---0-1-0---0-0----0-0-0-0---0-0--0------------|x2
                  PM-|      PM-|  PM----|

|---------------------------------------------------------------|
|---------------------------------------------------------------|
|-5-5-5---5---3--3-3-3-3-3----------------10-12-12bp10----10-10-|
|-3-3-3-0-5-0-1--1-3-1-1-3--0-0-0-0-10-12-10-12-12bp10-12-10-10-|
|-3-3-3-0-3-0-1--1-1-1-1-1--0-0-0-0-10-12--------------12-------|
|-3-3-3-0---0-1--1---1-1----0-0-0-0-----------------------------|
  PM-----|  PM----|  PM-|       PM-|

|-----------------------------|
|-----------------------------|
|-5-5-5---5---3--3-3-3-3-3----|
|-3-3-3-0-5-0-1--1-3-1-1-3----|
|-3-3-3-0-3-0-1--1-1-1-1-1----|
|-3-3-3-0---0-1--1---1-1----0-|
  PM-----|  PM----|  PM-|

Verse
|----5-----------------------------------|
|------3-------3-----------------8-----7-|
|----------2/3---3p0--2--------8-----7---|
|--------0-------------------0-----0-----|
|-0---------------------0----------------|
|-0---------------------0----------------|x6

Pre-Chorus
|------------------------------------|
|-----10-----10-----10-----10-----10-|
|---8------8------8------8------8----|
|-0------0------0------0------0------|
|------------------------------------|
|------------------------------------|

|------------------------------------|
|-----10-----10-----10-----10-----10-|
|---7------7------7------7------7----|
|-0------0------0------0------0------|
|------------------------------------|
|------------------------------------|
Play these 2 riffs 2 times total then play this

|------------------------------------|
|-----10-----10-----11-----10-----11-|
|---8------8------8------8------8----|
|-0------0------0------0------0------|
|------------------------------------|
|------------------------------------|

|---------------------------------------|
|-----10-----10-----11-----10-----11-10-|
|---7------7------7------7------7-------|
|-0------0------0------0------0---------|
|---------------------------------------|
|---------------------------------------|

|----------------------------------------|
|-----10-----10--10--11---11-10---10-11--|
|---8------8-----8---8----8--8----8--87-|
|-0------0-------0---0----0--0----0--0---|
|----------------------------------------|
|----------------------------------------|

|----------|
|-10-10-10-|
|-7--7--7--|
|-0--0--0--|
|-0--0--0--|
|-------0--|
        S*

*S=Strum this note

Play the Chorus and repeat the verse the same and chorus again the same

Pre-Bridge
|----------------------------------------|
|------------------------------------3---|
|------------------------------------2---|
|-0----0---0------0------0--0----0---0-0-|
|-0----0---0------0------0--0----0---0-0-|
|-0----0---0------0------0--0----0---0-0-|
  PM-------------------------|         PM

|------------------------------------------|
|------------------------------------3---4-|
|------------------------------------2---3-|
|-0----0---0------0------0--0----0---0-1-1-|
|-0----0---0------0------0--0----0---0-1-1-|
|-0----0---0------0------0--0----0---0-1-1-|
  PM---------------|         

Solo(w/ Delay)
|-------------------------------------------------------------x-10-|
|-10v-------------------------------11-----------10v----------x-10-|
|--------------------------12-11-12----12-11-12--------------------|
|------------------------------------------------------------------|
|------------------------------------------------------------------|
|------------------------------------------------------------------|
Another guitar in the background play this:
|----------------------------------------|
|----------------------------------------|
|----------------------------------------|
|-0----0---0------0------0--0----0---0-1-|
|-0----0---0------0------0--0----0---0-1-|
|-0----0---0------0------0--0----0---0-1-|x2
  PM----------------------------------|

Bridge
|----------------------------------------|
|----------------------------------------|
|----------------------------------------|
|-0----0---0------0------0--0----0---0-1-|
|-0----0---0------0------0--0----0---0-1-|
|-0----0---0------0------0--0----0---0-1-|
  PM----------------------------------|

|------------------------------------------|
|------------------------------------------|
|------------------------------------------|
|-0----0---0------0------0--0----0---1-1-1-|
|-0----0---0------0------0--0----0---1-1-1-|
|-0----0---0------0------0--0----0---1-1-1-|
  PM--------------------------------------|

|--------------------------------------|
|--------------------------------------|
|--------------------------------------|
|-0----0---0------0------0--0----0---0-|
|-0----0---0------0------0--0----0---0-|
|-0----0---0------0------0--0----0---0-|
  PM----------------------------------|

|------------------------------------|
|------------------------------------|
|------------------------------------|
|-0----0---0------0------0---------0-|
|-0----0---0------0------0---------0-|
|-0----0---0------0------0---------0-|
  PM---------------|

Pre-Bridge(W/ Clean tone and Fingers)
|-5---5---5---------5-5-5-5---|
|-3---3---3--3--3-3-3-3-3-3---|
|---------------0-2-3-3-3-3p0-|
|-0---0---0--0--0-------------|
|-----------------------------|
|-----------------------------|x3

|-5---5---5---------5-|
|-3---3---3--3--3-3-3-|
|---------------0-2-3-|
|-0---0---0--0--0-----|
|---------------------|
|---------------------|

Bridge
|-------------------------------5-----------------|
|-------------------------------3---3-3-3-3-------|
|-5----5-5/3--3--3-3-3-0--0-2-2-2---2-2-2-2---2-2-|
|-3----3-0----1--1-1-1-0--0-0-0-0---0-0-0-0---0-0-|
|-3----3-0----1--1-1-1-0--0-0-0-0---0-0-0-0---0-0-|
|-3----3-0----1--1-1-1-0--0-0-0-0---0-0-0-0---0-0-|x2

|-------------------------------5---------------------|
|-------------------------------3---3-3-3-3-----------|
|-5----5-5/3--3--3-3-3-0--0-2-2-2---2-2-2-2---2-2-----|
|-3----3-0----1--1-1-1-0--0-0-0-0---0-0-0-0---0-0-1-1-|
|-3----3-0----1--1-1-1-0--0-0-0-0---0-0-0-0---0-0-1-1-|
|-3----3-0----1--1-1-1-0--0-0-0-0---0-0-0-0---0-0-1-1-|
                                                 *PM-|
*=Distortion comes on right then

Outro Chorus
|--------------------------------------|
|-------------------------3b--------3b-|
|-5-5--5-5---3--3-3-3-----2b--------2b-|
|-3-3--3-3-0-1--1-1-1-0-0---0-0-0-0----|
|-3-3--3-3-0-1--1-1-1-0-0---0-0-0-0----|
|-3-3--3-3-0-1--1-1-1-0-0---0-0-0-0----|x2
                      PM-|  PM-----|

|---------------------------------------------------------------|
|---------------------------------------------------------------|
|-5-5-5---5---3--3-3-3-3-3----------------10-12-12bp10----10-10-|
|-3-3-3-0-5-0-1--1-3-1-1-3--0-0-0-0-10-12-10-12-12bp10-12-10-10-|
|-3-3-3-0-3-0-1--1-1-1-1-1--0-0-0-0-10-12--------------12-------|
|-3-3-3-0---0-1--1---1-1----0-0-0-0-----------------------------|
  PM-----|  PM----|  PM-|       PM-|

|--------------------------------------|
|--------------------------------------|
|-5-5-5---5---3--3-3-3-3-3----------5^-|
|-3-3-3-0-5-0-1--1-3-1-1-3--0--0--0-5^-|
|-3-3-3-0-3-0-1--1-1-1-1-1--0--0--0----|
|-3-3-3-0---0-1--1---1-1----0--0--0----|
  PM-----|  PM----|  PM-|   PM-----|

And your done!
Show more