#----------------------------------PLEASE NOTE--------------------------------#
#This file is the author's own work and represents their interpretation of the#
#song. You may only use this file for private study, scholarship, or research.#
#-----------------------------------------------------------------------------#
#-- File created with Instab - http://www.pconline.com/~smcarey/instab.html --#
#-----------------------------------------------------------------------------#

Author/Artist: Creed
Title: Say I
Album: Human Clay
Transcribed by: Me
Email: CreedGtrst41@cs.com

Intro/Chorus

----------------------------|------------------|------------------------------
----------------------------|7-------5-7-7b-7--|------------------------------
-5-5---5---3-3-3-3-3-3------|7-------5-7-7b-7--|------------------------------
-3-3-0-5-0-1-1-3-1-1-3-0-0-0|--0-0-0---------x2|------------------------------
-3-3-0-3-0-1-1-1-1-1-1-0-0-0|--0-0-0-----------|------------------------------
-3-3-0---0-1-1---1-1---0-0-0|--0-0-0-----------|------------------------------

play third time and then go back to first ending for the fourth             
------------------------------------------------------------------------------
--------10-12-12br-10----10-10--------------------------------------------------
--10-12-10-12-12br-10-12-10-10--------------------------------------------------
--10-12---------------12---------------------------------------------
------------------------------------------------------------------------------
------------------------------------------------------------------------------
 
verse:                        
---5--------------------------------------------------------------------------
-----3-------3-----------8-----7----------------------------------------------
-------0-2h3---3p0-2---8-----7------------------------------------------------
---------------------0-----0--------------------------------------------------
------------------------------------------------------------------------------
-0----------------------------------------------------------------------------
 
prechorus:                                                                   
------------------------------------------------------------------------------
-----10---10---10---10---10-----10---10---10---10---10-----10---10---11---10--
---8----8----8----8----8------7----7----7----7----7------8----8----8----8-----
-0--------------------------0--------------------------0----------------------
------------------------------------------------------------------------------
------------------------------------------------------------------------------
 
                       then strum the same notes                              
---------------------------------|--------------------------------------------
---11-----10---10---11---10---11-|--------------------------------------------
-8------7----7----7----7----7----|--------------------------------------------
------0--------------------------|--------------------------------------------
---------------------------------|--------------------------------------------
---------------------------------|--------------------------------------------
 chorus, then another verse, chorus, then bridge:                             

------------------------------------------------------------------------------
-------------3b3-------------3b3-----------------3b----------------3b---------
-------------3b2-------------2b2-----------------2b----------------2b---------
-------------0-0-------------0-0-----------------0-----------------0----------
-------------0-0-------------0-0-----------------0-----------------0----------
-0-0-0-0-0-0-0-0-0-0-0-0-0-0-0-0-0-0-0-0-0-0-0-0-0-0-0-0-0-0-0-0-0-0-0-0-0-0--
 . . . . . .     . . . . . .     . . . . . . . .   . . . . . . . .   . . . .  

------------------------------------------------------------------------------
-------------------------------3b--------------3b-----------------------------
-------------------------------2b--------------2b-----------------------------
-------------------------------0---------------0------------------------------
-------------------------------0---------------0------------------------------
-0-0-0-0-0-0-0-0-0-0-0-0-0-0-0-0-0-0-0-0-0-0-0-0------------------------------
 . . . . . . . . . . . . . . .   . . . . . .                                  

-5-5-5-------------|----------------------------------------------------------
-3-3-3-------------|----------------------------------------------------------
-------0-2-3-3-0---|----------------------------------------------------------
-------------------|----------------------------------------------------------
-------------------|----------------------------------------------------------
-------------------|----------------------------------------------------------
 then just strum these chords for what i guess you could call the clean chorus
-------5----------------------------------------------------------------------
-------3-3--------------------------------------------------------------------
-5-3-2-2-2--------------------------------------------------------------------
-3-1-0-0-0--------------------------------------------------------------------
-3-1-0-0-0--------------------------------------------------------------------
-3-1-0-0-0--------------------------------------------------------------------
there yah go another great song, have fun!
Show more