Band: Creed
Song: Say I
Album: Human Clay
Tabbed by  THECREEDFANATIC (jeffthealien@hotmail.com)

DROP D TUNING (DADG)

CHORUS

G|-----------------------------------------|
D|------------------------7-0--5-0--7-00--7|
A|----3-------1----1-----------------------|
D|333---0h1-1---11---00-0------------------|

G|-----------------------------------------|
D|------------------------7-0-5-0-7-----5h7|
A|----3-------1----1----------------5h7----|
D|333---0h1-1---11---00-0------------------|

G|-----------------------------------------|
D|------------------------7-7-5h7-7h8p7-5h7|
A|----3-------1----1-----------------------|
D|333---0h1-1---11---00-0------------------|

G|--------------------|
D|--------------------|
A|----3-------1----1--|
D|333---0h1-1---11---0|

POST-CHORUS
  
G|14h15p14----14h15p14-----------------|
D|---------15---------15p14-14h15p1412|
A|-------------------------------------|
D|-------------------------------------|

VERSE

G|-------------------------|
D|-------------------------|
A|---5----2h3 55-----------|
D|00---2h3-------0--2h3-3h5|

PRE-CHORUS

G|-----------------------------------------------|
D|-----------------------------------------------|
A|-6-6---6-6---5-5---5--5---6-6---6---6--6-9-5-5-|
D|-----------------------------------------------|

G|-------------------------------------------8--|
D|----------------------------------------9-----|
A|------6~--------------5---3h5---6-6--9--------|
D|-0--0----0--3--5--0-0---------0---------------|

G|-------------------------|
D|-------------------------|
A|-5-5-5-5-5-5-5-5-5-5-5-5-|
D|-------------------------|


BRIDGE
G|--------------------------------------------|
D|--------------------------------------------|
A|--------------------------------------------|
D|0-0-0-0-r-0-0-0~-XX-X-0-0-0-0-12/-0-0-0~-0h1|

G|-------------------------------------------|
D|-------------------------------------------|
A|-------------------------------------------|
D|0-0-0-0-12/-0-0-0~-0h1-0-0-0-0-r-0-0-0~-0h1|

G|--------------------------------------------|
D|--------------------------------------------|
A|--------------------------------------------|
D|0-0-0-0-12/-0-0-0~-0h1-0-0-0-0-r-0-0-0~-XX-X|

G|------------------------------------------|
D|------------------------------------------|
A|------------------------------------------|
D|0-0-0-0-12/-0-0-0~-0h1-0-0-0-0-12/-0-0-0-0|

INTERLUDE 1

G|------------12-----------------------12-----------|
D|12~-12h14h15--15p14p12-rr-rr-12h14h15--15p14-14p12|
A|--------------------------------------------------|
D|--------------------------------------------------|

INTERLUDE 2

G|-----|-----|-------------------|
D|-----|-----|--------13h15p13p12|
A|-----|-----|12h13h14-----------|
D|-----|-----|-------------------|

FINAL CHORUS

G|--------------------------------|
D|--------------------------------|
A|------------------5h6p5----5h6p5|
D|3333-11-11-111-00------XXXX-----|

G|--------------------------------|
D|--------------------------------|
A|------------------5h6p5----5h6p5|
D|3333-11-11-111-00------XXXX-----|

G-------------------------------------|
D-------------------------------------|
A---------3-------1-----1-------------|
D-3-3-3-3---0-1-1---1-1----0--0--0--0-|

G----------------------------------|
D----------------------------------|
A---------3-------1-----1----------|
D-3-3-3-3---0-1-1---1-1----0-0-0-0-|
==================================================================
SONG STRUCTURE

chorus
pre-verse
verse (x6)
pre-chorus
chorus
pre-verse
verse (x6)
pre-chorus
chorus
bridge
interlude 1
interlude 2
final chorus
Show more