Song: Sister
       band:Creed
  tabbed by:gothichild_666
Tuning- DADGBe


               I.  (w/ Clean tone...)
e------------|-------------------------------------------------
B------------|-------------------------------------------------
G--x-x--x-x--|-11--11-11--12-12/14--14-14-14-14--11-11-11/12---
D--x-x--x-x--|--0---0--0---0--0--0---0--0--0--0---0--0--0--0---
A--x-x--x-x--|--0---0--0---0--0--0---0--0--0--0---0--0--0--0---
D------------|--0---0--0---0--0--0---0--0--0--0---0--0--0--0---


e-------------------------------------|----------------------
B-------------------------------------|----------------------
G--12-12-12-11--11-11-11-12p11--9-11--|-11--11-11--12-12/14--
D---0--0--0--0---0--0--0--0-----0--0--|--0---0--0---0--0-----
A---0--0--0--0---0--0--0--0-----0--0--|--0---0--0---0--0-----
D---0--0--0--0---0--0--0--------0--0--|--0---0--0---0--0-----


e----------------------------------------------------------|
B----------------------------------------------------------|
G--14-14-14--11-11-11/12--12-12-12-11--11-11-11-12p11--9---|
D---0--0--0---0--0--0------0--0--0--0---0--0--0--0-----0---|
A---0--0--0---0--0--0------0--0--0--0---0--0--0--0-----0---|
D---0--0--0---0--0--0------0--0--0--0---0--0--0--0---------|






  II.
e-10--10--10---x--12--12---12--x--12-12--x---13--13---13--x-15-15--
B-10--10---7---x--12--12---12--x--12--9--x---13--13---13--x-15-15--
G--7---7---7---x---9---9----9--x---9--9--x---10--10---10--x-12-12--
D--7---7---7---x---9---9----9--x---9--9--x---10--10---10--x-12-12--
A------0---------------0-----------0--------------0-------------0--
D------0---------------0-----------0--------------0-------------0--


                   |TWO TIMES                           |
e-15-----15-15-x-x-|-12/13-10-x-x-12/13-x-10-x-x-10-----|
B-15-----15-15-x-x-|-12/13-10-x-x-12/13-x-10-x-x-10-----|
G-12--12-12-12-x-x-|--9/10--7-x-x--9/10-x--7-x-x--7-----|
D-12--12-12-12-x-x-|--9/10--7-x-x--9/10-x--7-x-x--7-----|
A--0------0--------|--0------------0-------0------0--0--|
D--0------0--------|--0------------0-------0------0--0--|








e--12/13-10-x-x-12/13-x-10-x-x-10-----12--|
B--12/13-10-x-x-12/13-x-10-x-x-10-----12--|
G---9/10--7-x-x--9/10-x--7-x-x--7------9--|
D---9/10--7-x-x--9/10-x--7-x-x--7------9--|
A---0------------0-------0------0--0------|
D---0------------0-------0------0--0------|


e-12/13--15----12/13-----15-x-x-15-----12--12/13--10-x-x---
B-12/13--15----12/13-----15-x-x-15-----12--12/13--10-x-x---
G--9/10--12-----9/10-----12-x-x-12------9---9/10---7-x-x---
D--9/10--12-----9/10-----12-x-x-12------9---9/10---7-x-x---
A--0---------0--------0----------0---0------0--------------
D--0---------0--------0----------0---0------0--------------


                         |(Distortion in...)   ^=Harmonic
e--12/13------10----10---|-----------------------
B--12/13------10----10---|---7^-7^-7^-7^-7^-7^---
G---9/10-------7-----7---|---7^-7^-7^-7^-7^-7^---
D---9/10-------7-----7---|-----------------------
A---------0----------0---|-----------------------
D---------0------0---0---|-----------------------





  III. (2x  Let ring)
e------------------------------------------------
B------------------------------------------------
G------------------------------------------------
D---------7----------------------------------5---
A-----7h9------7h9--5----7h9--5--(5)--7h9--5-----
D--0--------0---------0-------------0------------





 Verse  (4x  Palm mute)
e-------------------------------------------------
B-------------------------------------------------
G-------------------------------------------------
D---------7-----------------------------------5---
A-----7h9-------7h9--5----7h9--5---5---7h9--5-----
D--0--------0-0---------0--------0---0------------









PRE-CHORUS
 (3x  Palm mute w/ R.H. over bridge)
e-----------------------------------------------
B-----------------------------------------------
G-----------------------------------------------
D--0-0-0-10-9-0-0-9-8-0-0-8-7-0-0--0------------
A--0-0-0-10-9-0-0-9-8-0-0-8-7-0-0--0-9h10-9h10--
D--0-0-0-10-9-0-0-9-8-0-0-8-7-0-0--0------------


 4th time  (Palm mute)
e---------------------------------------------------
B---------------------------------------------------
G-------------------------------7/9--9--9-9---9/11--
D--0-0-0-10-9-0-0-9-8-0-0-8-7---x-x--x--x-x-x-x--x--
A--0-0-0-10-9-0-0-9-8-0-0-8-7---5/7--7--7-7-0-7/-9--
D--0-0-0-10-9-0-0-9-8-0-0-8-7---0-----------0-0-----






 CHORUS riff- 4x
 "Now realize..."                  | Ends w/ 1st & 3rd time
e----------------------------------|------------------------
B----------------------------------|------------------------
G----------------------------------|--9/11--11-11--11-11/12-
D--0------10-9-----9-8--------8-7-----x--x---x--x---x--x--x-
A--0--0-0-10-9-0-0-9-8-0--0-0-8-7-----7/-9---9--9---9--9/10-
D--0--0-0-10-9-0-0-9-8-0--0-0-8-7-----0----------------0----


 Ends w/ 2nd & 4th time
e------------------------|
B------------------------|
G---7/9--9-9--9---9/11---|
D---x-x--x-x--x-x-x--x---|
A---5/7--7-7--7-0-7/-9---|
D---0-----------0-0------|



 CHORUS rhythm- 4x         (Gtr.2 fill)
 "Bottled up..."
e----------------------------------
B---3------------------------------
G---2-----4-----2-----7-----4------
D---0-----4-----2-----5-----2------
A---0-----2-----0-----5-----2------
D---0-----x-----------5-----2------






 Guitar 2 fill...
e-------------------------------------------------------|
B--------10---------------------------------------------|
G--9h11-------9h11----------9h11----------9h11----------|
D-------------------12-12---------12-12---------12-12---|
A-------------------------------------------------------|
D-------------------------------------------------------|


e------------------------------------------------------------|
B------------------------------------------------------------|
G--9h11----------9h11--9h11p9----9h11-9h11p9---9h11----------|
D--------12-12---------------------------------------12-12---|
A------------------------------------------------------------|
D------------------------------------------------------------|






  I (2:06) |
e----------|----------|----------|--------------------------------|
B----------|--Repeat--|---Pre ---|--------------------------------|
G----------|--Verse---|--Chorus--|---Chorus------ Guitar 3 fill --|
D----------|----------|----------|-------------- On 4th Time thru -|
A----------|----------|----------|--------------------------------|
D----------|----------|----------|--------------------------------|


 Guitar 3 fill- (Left channel)
 @ approx. 3:35sec.
e-------------------------------|
B-------------------------------|
G-------------------------------|
D---4---4--4--4---2-------------|
A---2---2--2--2---0------14/----|
D-------------------------------|





  ( @ 3:41)  6x                    | Ends w/ 2nd, 4th & 6th time
e----------------------------------|--------------------------
B----------------------------------|--------------------------
G----------------------------------|---9/11--11-11--11-11/12--
D--0------10-9-----9-8--------8-7------x--x---x--x---x--x--x--
A--0--0-0-10-9-0-0-9-8-0--0-0-8-7------7/-9---9--9---9--9/10--
D--0--0-0-10-9-0-0-9-8-0--0-0-8-7------0----------------0-----







 Ends w/ 1st, 3rd & 5th time
e----------------------|
B----------------------|
G---7/9--9-9--9-9/11---|
D---x-x--x-x--x-x--x---|
A---5/7--7-7--7-7/-9---|
D---0-----------0------|



    I.   |    II.    |    III.    |
e--------|-----------|------------|
B--------|-----------|-- Clean ---|
G--------|-----------|--- Tone ---|
D--------|-----------|------------|
A--------|-----------|------------|
D--------|-----------|------------|



 KEY: h = hammer
      p = pull off
      v = vibrate string
      / = slide
Show more