----------------------------------------------------------------------------------------------

	     SONG: Sister
	     BAND: Creed
	    ALBUM: My Own Prison
 
 ----------------------------------------------------------------------------------------------

	TUNING: drop d (D,A,D,G,B,E)


     INTRO:

    E|----------------------------------------------|
    B|----------------------------------------------|
    G|-11-11-12-12-14-14-14-14-11/12-1211-11-1211-|
    D|----------------------------------------------|
    A|-9--9--10-10-12-12-12-12-9-/10-109--9--109--|
    D|----------------------------------------------|

    E|-10-10-10-12-12-12-12-12-13-13-13-15-15-15-15-15-|
    B|-10-10-10-12-12-12-12-12-13-13-13-15-15-15-15-15-|
    G|-7--7--7--9--9--9--9--9--10-10-10-12-12-12-12-12-|
    D|-------------------------------------------------|
    A|-------------------------------------------------|
    D|-------------------------------------------------|

    E|-12/13-10-12/13-10-10-|-12/13-10-12/13-10-10-|
    B|-12/13-10-12/13-10-10-|-12/13-10-12/13-10-10-|
    G|-9-/10-7--9-/10-7--7--|-9-/10-7--9-/10-7--7--|
    D|----------------------|----------------------|
    A|----------------------|----------------------|
    D|----------------------|----------------------|

    E|-12/13-15-12/13-15-15-|-12/13-10-12/13-10-10-|
    B|-12/13-15-12/13-15-15-|-12/13-10-12/13-10-10-|
    G|-9-/10-12-9-/10-12-12-|-9-/10-7--9-/10-7--7--|
    D|----------------------|----------------------|
    A|----------------------|----------------------|
    D|----------------------|----------------------|


     Bass.....


     Guitars enter with these harmonics

    E|-------------|
    B|-7-7-7-7-7-7-|
    G|-7-7-7-7-7-7-|
    D|-------------|
    A|-------------|
    D|-------------|

    E|-----------------------------------|
    B|-----------------------------------|
    G|-----------------------------------|
    D|-------7-------------------------5-|
    A|---7h9-----7h95---7h95---7h95---|
    D|-0-------0-------0-------0---------|

     VERSE:
  
    E|-----------------------------------------|
    B|-----------------------------------------|
    G|-----------------------------------------|
    D|-------7-------------------------------5-|
    A|---7h9-------7h95-----7h95-----7h95---|
    D|-0-------0-0-------0-0-------0-0---------|
     pm.       ...       ...       ...


     BRIDGE:

    E|---------------------------------------------|
    B|---------------------------------------------|
    G|---------------------------------11/12-11/12-|
    D|-0-0-10-9-0-0-9-8-0-0-8-7-X-X--X-------------|
    A|-0-0-10-9-0-0-9-8-0-0-8-7-X-X--X-9-/10-9-/10-|
    D|-0-0-10-9-0-0-9-8-0-0-8-7-X-X--X-------------|
       ........................

     Then switch to this

    E|-----------------------------------------|
    B|-----------------------------------------|
    G|--------------------------9/11-----11/12-|
    D|-0-0-10-9-0-0-9-8-0-0-8-7------X-X-------|
    A|-0-0-10-9-0-0-9-8-0-0-8-7-7/9--X-X-9-/10-|
    D|-0-0-10-9-0-0-9-8-0-0-8-7------X-X-------|
       ...      ...     ...

     CHORUS:

    E|----------------------|
    B|----------------------|
    G|------4--2------------|
    D|-0----4--2--5----2----|
    A|-0----2--0--5----2----|
    D|-0----------5----2----|
Show more