Song: Creed - One Last Breath
Tabber: Mikkjal
Please rate this tab after you have played after it..
You can find out of how they play it by listening to the song..
I just found out that I have set the song under the wrong name. The real name of this song is "One last breath".

Intro:
E--2---5---0h2----------------------------------------------------------3p0---
B---------------3-0----2-3-3h5p3-2h3p2-0-0---3---2h3p0------------3-----------
G------------------------------------------------------------0----------------
D--0-0---0-------------------------------------------------0------------------
A--------------------0----------0--------2-2---2-------0----------------------
E--------------------------------------------------------3------3----3--------
 
E--2---3---2h3p2p0-3p2---------------------------2---------------3-------
B----------------------------2-3p2p0-2-0-------2---2-----------3---3-----
G--------------------------2-----------------4-------4-------0-------0---
D--0-0---0---------------2-----------------4-----------4---0-----------0-
A----------------------0-----------------2-------------------------------
E--------------------------------------------------------3---------------
          
Quiet chours:
E--2------------------------0-----------3------------
B--3------------2-----------2-----------3------------
G--2------------3-----------2-----------0------------
D---------------4------------------------------------
A----------------------------------------------------
E----------------------------------------------------
This chours is not played disorted.

Chours: 
E-----------------------------------------
B-----------------------------------------
G--7--------------------------------------
D--7--------4--------9--------5-----------
A--5--------4--------9--------5-----------
E--5--------2--------7--------3-----------
This chours is played disorted.
Show more