One Last Breath
Creed

My bad..I don't know what I was thinking when I wrote the title as "Six Feet Under."
I was listening to the song and heard the lyrics "six feet from the edge" and I don't know,
I guess subliminably I just wrote Six Feet Under..Sorry guys.  However, this is the correct 
tab for the Creed song "One Last Breath."  My apologies.

Standard Tuning
h - hammer on
p - pull off


Intro / Verse (1/2 Time)
|-2-----5-----0h2--------------------------------------------------------------|
|------------------3--------2--3--3h5-----5p3p2p3-----------3-----2h3----------|
|---------------------2------------------------------------------------4-------|
|-0--0-----0--------------------------------------------------------------4----|
|------------------------0-------------0-----------0--2--2-----2---------------|
|------------------------------------------------------------------------------|

|-------------------3--2--2-----3-----2--0h2p0---------------------------------|
|-------------3--------------------------------3--------------2--2h3p2p0-------|
|-------0--------2-----------------------------------------2-----------------0-|
|----0-----0--------------0--0-----0--------------0-----2-----------------4----|
|----------------------------------------------------0-------------------------|
|-3----------------------------------------------------------------------------|

|-------------2-----------------------3--------------|
|----------2-----2-----------------------3-----------|
|-------4-----------4--------------0--------0--------|
|----4-----------------4--------0--------------0-----|
|-2--------------------------2-----------------------|
|-------------------------3--------------------------|



Bridge (clean)
|--------------------------------|
|--------------------------------|
|7---7--7772---224---4--444------|
|7---7--7772---224---4--4445---55|
|5---5--5552---222---2--2225---55|
|--------------------------3---33|


Chorus (distortion)
|--------------------------------|
|--------------------------------|
|7---7--7-22-2-224---4--4--------|
|7---7--7-22-2-224---4--4-55-5-55|
|5---5--5-00-0-002---2--2-55-5-55|
|-------------------------33-3-33|


Post-Chorus (distortion)
|--------------------------------|
|--------------------------------|
|4--44-----------4--44-----------|
|4--44-5--55-5-554--44-5--55-5-55|
|2--22-5--55-5-552--22-5--55-5-55|
|------3--33-3-33------3--33-3-33|


Interlude (distortion)
|----------------------------------------------------------------|
|----------------------------------------------------------------|
|--------------7---7-7-77-77-7-772-2-2-227-7-774---4-4-44-44-4-44|
|2-2-2-225-5-557---7-7-77-77-7-772-2-2-227-7-774---4-4-44-44-4-44|
|2-2-2-225-5-555---5-5-55-55-5-550-0-0-005-5-552---2-2-22-22-2-22|
|0-0-0-003-3-33--------------------------------------------------|


Ending (clean)
|-2-----5-----0h2--------------------------------------------------------------|
|------------------3--------2--3--3h5-----5p3p2p3-----------3-----2h3----------|
|---------------------2------------------------------------------------4-------|
|-0--0-----0--------------------------------------------------------------4----|
|------------------------0-------------0-----------0--2--2-----2---------------|
|------------------------------------------------------------------------------|

|--------------3----------|
|-------------------3-----|
|--------0----------------|    
|----0--------------------| 
|-------------------------|
|-3-----------------------|



Order:

Intro/Verse 3X
Bridge      2X
Intro/Verse 3X
Chorus      4X
Post-Chours 1X
Interlude   2X
Bridge      2X
Chorus      4X
Ending      1X
Show more