Creed "Torn
Drop-D (DADGBe)
Transcribed By: lilguitardude515


Intro.
  THREE TIMES                    | FOURTH TIME                  
e------------------------0-------|------------------------------
B-----------6--------------6-----|----------6-6-6-6-68-8-8-8---
G-----7p5---------7p5--------5---|----7p5---5-5-5-5-57-7-7-7---
D--0------0-----0------0---------|--0-----0-0---0---------0-0---
A--------------------------------|------------------------0-0---
D--------------------------------|------------------------------

 Verse  2x
  THREE TIMES                  | FOURTH TIME
e----------------------0-------|-----------------------------
B----------6-6-----------6-----|-----------6--6-6-6/8--8-8-8-
G----7p5---5-5---7p5-------5---|----7p5----5--5-5-5/7--7-7-7-
D--0-----0-----0-----0---------|--0-----0--0-------------0-0-
A------------------------------|-------------------------0-0-
D------------------------------|-----------------------------

 Pre-Chorus
  TWO TIMES
e--------------------------------------------------------
B--------------------------------------------------------
G-5--5--5-5--5-5--5-5-x-5--5-5--5-xxxx-5-----------------
D-3--3--3-3--3-3--5-5-0-5--5-5--5-0000-3--0-00-3p0--0-0--
A-3--3--3-3--3-3--3-3-0-3--3-3--3-0000-3--0-00-3p0--0-0--
D-3--3--3-3--3-3--3-3-0-----------0000-3--0-00-3p0--0-0--

e------------------------------------------------
B------------------------------------------------
G------------------------------------------------
D---------------0-00-3p0--0-0--------------------
A--3-4-5-0-3-4--0-00-3p0--0-0--3-4-5-0-5-4-3-0---
D---------------0-00-3p0--0-0--------------------

 Chorus
e------------------------------------------------------------
B------------------------------------------------------------
G--5--5-5-5-x-5-5-5-5---7--7-7-7-x-7-7--7--7-7---10---10-10--
D--3--3-3-3-x-5-5-5-5-0-5--5-5-5-x-7-7--7--7-7-0--8----8--8--
A--3--3-3-3-x-3-3-3-3-0-5--5-5-5-x-5-5--5--5-5-0--8----8--8--
D--3--3-3-3-----------0-5--5-5-5---------------0--8----8--8--

e-----------------------------------------
B-----------------------------------------
G--10-10-x-10--10-10-10-10---9--9-9-9-----
D---8--8-x-10--10-10-10-10---7--7-7-7-----
A---8--8-x--8---8--8--8--8-0-7--7-7-7--0--
D---8--8-------------------0-7--7-7-7--0--

e-------------------|---------|--------------|----------|
B-------------------|---------|--------------|----------|
G-------------------|--Verse--|--Pre-Chorus--|--Chorus--|
D--75--------------|---2x----|--------------|----------|
A------7-53--------|---------|--------------|----------|
D------------3--5b--|---------|--------------|----------|

 Interlude
e-----------------------------------------------------------
B-----------------------------------------------------------
G-----------------------------------------------------------
D-----------------------------------------------------------
A------------------------6-6-----6-6-------------4--5-4-----
D--0-0-10-10-9-9-0-0-6-7-----0-0-----7-7-0-0-4-5--------5-0-

 (End w/ 1st Time)
e--------------------------------------------------------------
B--------------------------------------------------------------
G--------------------------------------------------------------
D--------3-3-3------------3-3-3-3-0----------2-2-2-------------
A--------------------------------------------------------------
D-3-3-3-3------3---3-3-3-3------------2-2-2-2------2---2-2-2-2-

             | Riff A (End Interlude w/ 2nd Time)
e------------|-----------------------------------------|
B------------|-----------------------------------------|
G------------|-5--5-5-5------------4--4-4-4------------|
D-2-2-2-2-0--|-3--3-3-3------------2--2-2-2------------|
A------------|-3--3-3-3--33-0-3-5--2--2-2-2--22-0-2-3--|
D------------|-3--3-3-3--33-0-3-5--2--2-2-2--22-0-2-3--|

 THREE TIMES
e------------------------------------------------------|
B------------------------------------------------------|
G--------------(8)---(8)----------(7 7)-7------End-W/--|
D---------------8-----8----------6-7(0)-5------Riff-A--|
A--0-10-9-0-6-7-6-0-0-6-7-0--4-5-4-5-0--5-0------------|
D--0-10-9-0-6-7---0-0---7-0--4-5---0-0--5-0------------|

 Verse 2x

 TWO TIMES  (...her peace is dead...)
 Strum softly
e-------------------------------------------|
B-------------------------------------------|
G--5---5-/-7---7---10---10---9---7---7------|
D--3---5---5---7----8----8---7---0---5---0--|
A--3---3---5---5----8----8---7---0---5---0--|
D--3-------5--------8--------7---0---5---0--|

 Outro.
 Fade and repeat 
e-------------------------0--------0------
B-----------6---------------6--------6----
G-----7p5----------7p5--------5--------5--
D--0------0------0------0-------0---------
A-----------------------------------------
D-----------------------------------------
Show more