Song: Torn
Band: Creed
Album: My Own Prison

TABBED BY  THECREEDFANATIC (jeffthealien@hotmail.com)

Dropped D tuning.  (DADG)

Intro:
--------------------------------------------
-----------------------12-------------------
----------------------------------3-5-5-5-5-
-----------------------------0--------------


Verse:
---------------------------------------------------------------------------
---------------------------3----------------------------------3----3-3-5-5-
----5-3--3---0-3----5-3--3---3-0-3-5----5-3--3---0-3---5-3--3----3---------
-0---------------0-------------------0---------------0---------------------


Pre-Chorus:
---------------------------------------
---------------------------------------
------------------3--3-3--3--0-0-5-----
-3--3-3--3--3-3--------------------3---

---------------------------------------------------------------
---------------------------------------------------------------
-------------------3-4-5-0-3-4-------------------3-4-5-0-5-4-3-
-0--0-0-3-0-0-0--0-------------0--0-0-3-0-0-0--0---------------


Chorus:
----------------------------------------------------------------2-0-----------
--------------------------------------------------------------------2-0-------
---------3-3--3--3---------5-5--5--5---------8-8--8--8--0--0-0----------3-----
-3--3--3-----------5--5--5-----------8--8--8------------------------------3-5-


Interlude:
--------------------------------------------------------
--------------------------------------------------------
-5-5-3-3-2-2-0-0-----5-5-----5-5-4-4---------4--5-3-0---  x 2
-----------------3-5-----5-5---------3-3-5-5----------5-

    after 1ST time:
   -----------------------------------------------------------------
   -----------------------------------------------------------------
   -----------------------------------------------------------------
   -3-3-3-3-3-3-3-3-3-3-3-3-3-3-3-3-2-2-2-2-2-2-2-2-2-2-2-2-2-2-2-2-

    after 2ND time:
   ---------------------------------------
   ---------------------------------------
   ---------------------------------------
   -3--3-3--3--2-2-3-5--2--2-2--2-0-0-2-3-


-----------------------------------------------
-----------------------------------------------
----3--2---------5------5--4--------4--5-3-0---  x 3
-0--------3--3-5----3-5-------0-3-5----------5-

    after 1ST and 2ND time:
   ---------------------------------------
   ---------------------------------------
   ---------------------------------------
   -3--3-3--3--2-2-3-5--2--2-2--2-0-0-2-3-

    after 3RD time:
   ----------------------------------------
   ----------------------------------------
   ----------------------------------------
   -3--3-3--3--2-2-3-5--2--2-2--2-2-2--2-2-


Third Chorus:
------------------------------------------------------2-0-----------
----------------------------------------------------------2-0-------
-----3------5------8--0----------3------5------8--0-----------3-----
-3------5------8----------5--0------5------8--------------------3-5-
Show more