Author/Artist: Creed
Title: Weathered
Album: Weathered

You can play this to ways:

FIRST VERSION: 
Tuning: Drop-D


SECOND VERSION:
Tuning: D,  D,  A,  D,  A,  D   (High to Low)

-1-----------|-------------|-------------|-----------|--------------|-1-------
---3---------|-------3-----|-----3-------|---------5-|-3-5/7--------|---3-----
-----2-------|---------2---|-------------|-----------|-------7-5--7-|-----2---
-------0---0-|-----------0-|---------5p3-|-----------|--------------|-------0-
-3-------3---|-2-----------|-------5-----|-5---------|--------------|-3-------
-------------|-------------|-3-5---------|---0-------|--------------|---------
 1st Version:                                                                 

------|-------------|-------------|-----------|-----------|-------------------
------|-------3-----|-----3-------|-----------|-----------|-------------------
------|---------2---|-------------|-----------|------7^---|-------------------
----0-|-----------0-|---------5p3-|-----------|-12^--7^---|-------------------
--3---|-2-----------|-------5-----|-5---------|-12^-------|-------------------
------|-------------|-3-5---------|---0-------|-----------|-------------------
                                                                              

-3-----------|-------------|-------------|-------------|--------------|-3-----
---0---------|-------0-----|-----0-------|-----------2h|-0-2/4--------|---0---
-----0-------|---------0---|-------------|-------------|-------5-3--5-|-----0-
-------0---0-|-----------0-|-----------5p|-3-----------|--------------|-------
-3-------3---|-2-----------|---------5---|---5---------|--------------|-3-----
-------------|-------------|-3-5---------|-----0-------|--------------|-------
 2nd Version:                                                                 

-------|-------------|-------------|-------------|------7^---|----------------
-------|-------0-----|-----0-------|-------------|-12^--7^---|----------------
-------|---------0---|-------------|-------------|-12^--7^---|----------------
-0---0-|-----------0-|-----------5p|-3-----------|-----------|----------------
---3---|-2-----------|---------5---|---5---------|-----------|----------------
-------|-------------|-3-5---------|-----0-------|-----------|----------------
Show more