• Song:

    Youre Not That Innocent

  • Artist:

    Criminal Colection

1.verse ( let me know, let me be....)

G:|-----------------|-----------------|-----------------|-----------------|
D:|-----------------|-----------------|-----------------|-----------------|
A:|-----2-2-2-2-2-2-|-2-2-2-2-2-2-2-2-|-----------------|-----------------| 
E:|-----------------|-----------------|-2-2-2-2-2-2-2-2-|-4-4-4-4-4-4-4-4-|


G:|-----------------|-----------------|-----------------|-----------------|
D:|-----------------|-----------------|-----------------|-----------------|
A:|-----2-2-2-2-2-2-|-2-2-2-2-2-2-2-2-|-----------------|-----------------| 
E:|-----------------|-----------------|-2-2-2-2-2-2-2-2-|-4-4-4-4-4-4-4-4-|



G:|-----|
D:|-----|
A:|-7---|
E:|-0---|


1.chorus( every second...)

G:|-----------------|-----------------|-----------------|-----------------|
D:|-----------------|-----------------|-----------------|-----------------|
A:|-----------------|-4-4-4-4-4-4-4-4-|-2-2-2-2-2-2-2-2-|-2-2-2-2-2-2-2-2-|
E:|-2-2-2-2-2-2-2-2-|-----------------|-----------------|-----------------|


G:|-----------------|-----------------|-----------------|-----------------|
D:|-----------------|-----------------|-----------------|-----------------|
A:|-----------------|-4-4-4-4-4-4-4-4-|-2-2-2-2-2-2-2-2-|-5-5-5-5-7-7-7-7-|
E:|-2-2-2-2-2-2-2-2-|-----------------|-----------------|-----------------|


G:|-----------------|-----------------|-----------------|-----------------|
D:|-----------------|-----------------|-----------------|-----------------|
A:|-----------------|-4-4-4-4-4-4-4-4-|-2-2-2-2-2-2-2-2-|-2-2-2-2-2-2-2-2-|
E:|-2-2-2-2-2-2-2-2-|-----------------|-----------------|-----------------|


G:|-----------------|-----------------|-----------------|
D:|-----------------|-----------------|-----------------|
A:|-----------------|-----------------|-2-------2-2-2-2-|
E:|-4-----4-4-4-4---|--4-4----4-4-4---|-----------------|


1.Interlude ( i´ve lost my pride,i´ve lost my site....)

G:|-----------------|-----------------|-----------------|-----------------|
D:|-----------------|-----------------|-----------------|-----------------|
A:|-----------------|-2-2-2---2-2-2---|-----------------|-4-4-4---4-4-4---|
E:|-2-2-2---2-2-2---|-----------------|-4-4-4---4-4-4---|-----------------|


G:|-----------------|-----------------|-----------------|-----------------|
D:|-----------------|-----------------|-----------------|-----------------|
A:|-----------------|-2-2-2---2-2-2---|-----------------|-2-1-2-4-2-1-----|
E:|-2-2-2---2-2-2---|-----------------|-4-4-4---4-4-4---|-----------------|


G:|-----------------|-----------------|-----------------|-----------------|
D:|-----------------|-----------------|-----------------|-----------------|
A:|-----------------|-----------------|-----------------|-----------------|
E:|-2-----2-2-2-2---|--2-2----2-2-2-2-|-2-------2-2-2-2-|--2-2----2-2-2-2-|


G:|-----------------|-----------------|-----------------|-----------------|
D:|-----------------|-----------------|-----------------|-----------------|
A:|-----------------|-----------------|-----------------|-2-1-2-4-2-1-----|
E:|-2-----2-2-2-2---|--2-2----2-2-2-2-|-2-------2-2-2---|-----------------|

 
2.verse ( don´t called me baby ...)

G:|-----------------|-----------------|-----------------|-----------------|
D:|-----------------|-----------------|-----------------|-----------------|
A:|-----------------|-4-4-4-4-4-4-4-4-|-2-2-2-2-2-2-2-2-|-2-2-2-2-2-2-2-2-|
E:|-----2-2-2-2-2-2-|-----------------|-----------------|-----------------|

G:|-----------------|-----------------|-----------------|-----4-----4-----|
D:|-----------------|-----------------|-----------------|-----------------|
A:|-----------------|-4-4-4-4-4-4-4-4-|-2-2-2-2-2-2-2-2-|-2-2---2-2-------|
E:|-2-2-2-2-2-2-2-2-|-----------------|-----------------|-----------------|


G:|-----------------|-----------------|-----------------|-----------------|
D:|-----------------|-----------------|-----------------|-----------------|
A:|-----2-2-2-2-2-2-|-2-2-2-2-2-2-2-2-|-----------------|-----------------| 
E:|-----------------|-----------------|-2-2-2-2-2-2-2-2-|-4-4-4-4-4-4-4-4-|


G:|-----------------|-----------------|-----------------|-----------------|
D:|-----------------|-----------------|-----------------|-----------------|
A:|-----2-2-2-2-2-2-|-2-2-2-2-2-2-2-2-|-----------------|-----------------| 
E:|-----------------|-----------------|-2-2-2-2-2-2-2-2-|-4-4-4-4-4-4-4-4-|



G:|-----|
D:|-----|
A:|-7---|
E:|-0---|


2.chorus ( Every second wash your hands...)

G:|-----------------|-----------------|-----------------|-----------------|
D:|-----------------|-----------------|-----------------|-----------------|
A:|-----------------|-4-4-4-4-4-4-4-4-|-2-2-2-2-2-2-2-2-|-2-2-2-2-2-2-2-2-|
E:|-2-2-2-2-2-2-2-2-|-----------------|-----------------|-----------------|


G:|-----------------|-----------------|-----------------|-----------------|
D:|-----------------|-----------------|-----------------|-----------------|
A:|-----------------|-4-4-4-4-4-4-4-4-|-2-2-2-2-2-2-2-2-|-5-5-5-5-7-7-7-7-|
E:|-2-2-2-2-2-2-2-2-|-----------------|-----------------|-----------------|


G:|-----------------|-----------------|-----------------|-----------------|
D:|-----------------|-----------------|-----------------|-----------------|
A:|-----------------|-4-4-4-4-4-4-4-4-|-2-2-2-2-2-2-2-2-|-2-2-2-2-2-2-2-2-|
E:|-2-2-2-2-2-2-2-2-|-----------------|-----------------|-----------------|


G:|-----------------|-----------------|-----------------|
D:|-----------------|-----------------|-----------------|
A:|-----------------|-----------------|-2-------2-2-2-2-|
E:|-4-----4-4-4-4---|--4-4----4-4-4---|-----------------|


2.Interlude ( i´ve lost my pride,i´ve lost my site....)

G:|-----------------|-----------------|-----------------|-----------------|
D:|-----------------|-----------------|-----------------|-----------------|
A:|-----------------|-2-2-2---2-2-2---|-----------------|-4-4-4---4-4-4---|
E:|-2-2-2---2-2-2---|-----------------|-4-4-4---4-4-4---|-----------------|


G:|-----------------|-----------------|-----------------|-----------------|
D:|-----------------|-----------------|-----------------|-----------------|
A:|-----------------|-2-2-2---2-2-2---|-----------------|-2-1-2-4-2-1-----|
E:|-2-2-2---2-2-2---|-----------------|-4-4-4---4-4-4---|-----------------|


G:|-----------------|-----------------|-----------------|-----------------|
D:|-----------------|-----------------|-----------------|-----------------|
A:|-----------------|-----------------|-----------------|-----------------|
E:|-2-----2-2-2-2---|--2-2----2-2-2-2-|-2-------2-2-2-2-|--2-2----2-2-2-2-|


G:|-----------------|-----------------|-----------------|-----------------|
D:|-----------------|-----------------|-----------------|-----------------|
A:|-----------------|-----------------|-----------------|-2-1-2-4-2-1-----|
E:|-2-----2-2-2-2---|--2-2----2-2-2-2-|-2-------2-2-2---|-----------------|

G:|-----------------|-----------------|-----------------|-----------------|
D:|-----------------|-----------------|-----------------|-----------------|
A:|-----------------|-----------------|-----------------|-----------------|
E:|-2-----2-2-2-2---|--2-2----2-2-2-2-|-2-------2-2-2-2-|--2-2----2-2-2-2-|


G:|-----------------|-----------------|-----------------|
D:|-----------------|-----------------|-----------------|
A:|-----------------|-----------------|-----------------|
E:|-2-----2-2-2-2---|--2-2----2-2-2-2-|-2-------2-2-2-2-|

3.chorus ( Every second wash your hands...)

G:|-----------------|-----------------|-----------------|-----------------|
D:|-----------------|-----------------|-----------------|-----------------|
A:|-----------------|-4-4-4-4-4-4-4-4-|-2-2-2-2-2-2-2-2-|-2-2-2-2-2-2-2-2-|
E:|-2-2-2-2-2-2-2-2-|-----------------|-----------------|-----------------|


G:|-----------------|-----------------|-----------------|-----------------|
D:|-----------------|-----------------|-----------------|-----------------|
A:|-----------------|-4-4-4-4-4-4-4-4-|-2-2-2-2-2-2-2-2-|---5-5-5---7-7-7-|
E:|-2-2-2-2-2-2-2-2-|-----------------|-----------------|-----------------|


G:|-----------------|-----------------|-----------------|-----------------|
D:|-----------------|-----------------|-----------------|-----------------|
A:|-----------------|-4-4-4-4-4-4-4-4-|-2-2-2-2-2-2-2-2-|-2-2-2-2-2-2-2-2-|
E:|-2-2-2-2-2-2-2-2-|-----------------|-----------------|-----------------|


G:|-----------------|-----------------|-----------------|-----------------|
D:|-----------------|-----------------|-----------------|-----------------|
A:|-----------------|-----------------|-2-2-2-2-2-2-2-2-|-2-2-2-2-2-2-2-2-|
E:|-4-4-4-4-4-4-4-4-|-4-4-4-4-4-4-4-4-|-----------------|-----------------|

4.chorus ( Every second wash your hands...)

G:|-----------------|-----------------|-----------------|-----------------|
D:|-----------------|-----------------|-----------------|-----------------|
A:|-----------------|-4-4-4-4-4-4-4-4-|-2-2-2-2-2-2-2-2-|-2-2-2-2-2-2-2-2-|
E:|-2-2-2-2-2-2-2-2-|-----------------|-----------------|-----------------|


G:|-----------------|-----------------|-----------------|-----------------|
D:|-----------------|-----------------|-----------------|-----------------|
A:|-----------------|-4-4-4-4-4-4-4-4-|-2-2-2-2-2-2-2-2-|-5-5-5-5-7-7-7-7-|
E:|-2-2-2-2-2-2-2-2-|-----------------|-----------------|-----------------|


G:|-----------------|-----------------|-----------------|-----------------|
D:|-----------------|-----------------|-----------------|-----------------|
A:|-----------------|-4-4-4-4-4-4-4-4-|-2-2-2-2-2-2-2-2-|-2-2-2-2-2-2-2-2-|
E:|-2-2-2-2-2-2-2-2-|-----------------|-----------------|-----------------|



G:|-----------------|-----------------|-----------------|
D:|-----------------|-----------------|-----------------|
A:|-----------------|-----------------|-2-------2-2-2-2-|
E:|-4-----4-4-4-4---|--4-4----4-4-4---|-----------------|

end note

G:|-----------------|-----------------|-----------------|
D:|-----------------|-----------------|-----------------|
A:|-5---------------|-7---------------|-----------------|
E:|-----------------|-0---------------|-2---------------|
Show more