sponsored links
Gael Tab by Cruachan


                              CRUACHAN
                             "THE GAEL"


e|---------------------------------------------------------------------|
B|---------------------------------------------------------------------|
G|---------------------------------------------------------------------|
D|------6---6--------------6---6-------------6---6------------6---6----|
A|----7---7---7----------6---6---6---------7---7---7---------6--6---6--|
E|--9------------------7-----------------9-----------------7-----------|


e|---------------------------------------------------------------------|
B|---------------------------------------------------------------------|
G|------6---6-----------6---6------------6---6------------6---6--------|
D|----7---7---7-------7---7---7--------6---6---6--------6---6---6------|
A|--9---------------9----------------7----------------7----------------|
E|---------------------------------------------------------------------|


i will tab solo part later, wait for it.
Show more
sponsored links
sponsored links