-------------------------------------------------------------------------------
			     Untrust Us - Crystal Casles
-------------------------------------------------------------------------------
Tabbed by: Nathanael


Tuning: Drop D
Intro

e|---------------------------------------------|
B|---------------------------------------------|
G|---------------------------------------------|
D|---5-------------------5---------------------|
A|-----5--1-6-8-6-5-3-1----5--1-6-8-6-5-3-1----|
D|-5--------------------5----------------------|

           Or an octave up, if you prefer

e|--------------------------------|
B|--------------------------------|
G|----12--------------------------|
D|-------12---13-15-13-12-10------|
A|--10------13---------------13---|
D|--------------------------------|

Vocal Synth behind:

e|--------------------------------------------------|
B|--------------------------------------------------|
G|--------------------------------------------------|
D|--------------------------------------------------|
A|--13-10-10-10-10-10-10-10-8-10-10-10-10-10-10-10--|
E|--------------------------------------------------|

Bass plays this till arppegiator 

e|-------------|
B|-------------| Over and over...
G|-------------| Very exciting 
D|--5--5--5--5-|
A|-------------|
D|-5--5--5--5--|

Arppegiator yolk next:

e|-------------------------------------|
B|-------------------------------------|
G|-14-12-------------------------------|
D|------12------13-15p13/12-10---------|
A|---------13h15---------------13------|
D|-------------------------------------|

e|-------------------------------------|
B|-------------------------------------|
G|-12-10-------------------------------|
D|-------12-------13-15p13/12-10-------|
A|----------13h15----------------13----|
D|-------------------------------------|

e|-------------------------------------|
B|-----------------15------------------|
G|-15-19-------------------------------|
D|------12------12---15----------------|
A|---------13h15--------13-------------|
D|-------------------------------------|

e|-------------------------------------|
B|-------------------------------------|
G|-12-10-------------------------------|
D|-------12-------13-15p13/12-10-------|
A|----------13h15----------------13----|
D|-------------------------------------|

While thats playing, Rhythm is:

e|-------------------------------------------------------------------|
B|-------------------------------------------------------------------|
G|----------------------------------3-3-3-3-3-3-3-3------------------|
D|----------------------------------1-1-1-1-1-1-1-1------------------|
A|-5-5-5-5-5-5-5-5-1-1-1-1-1-1-1-1-1----------------3-3-3-3-3-3-3-3--|
D|-5-5-5-5-5-5-5-5-1-1-1-1-1-1-1-1-1----------------3-3-3-3-3-3-3-3--|

And so on and so forth...
Show more