• Song:

    Lets Make Love And Listen To Death From Above

  • Artist:

    Css

Tabbed by: Luis92x

Intro x2

G|--------------------------------------|
D|-------------------------------8-7-6--|
A|--3-3-3-3-3-3-33-55-6-6-6-6-6-6-5-4---|
E|--------------------------------------|


Verse x4 (00:16) until chorus

e|--------------------------------------|--------------------------------------|
B|--------------------------------------|---------------13/1----------------6--|
G|---------------15/3--------------5-5--|--6-6--4h6-4h6-------6-6-4h6-4h6-4----|
D|--8-8--6h8-6h8-------8-8-6h8-6h8------|--------------------------------------|


Chorus   (00:48)

G|------------------------------------|----------------------------------|
D|------------------------------------|----------------------------------|
A|-----------------8-8-6h8-6h8-8-(x2)-|--3-3-1h3-1h3-3---3-3--3-6-6-8-8--|
E|--4-4-2h4-2h4-4-(x2)----------------|----------------------------------|


Verse x4 (01:04)

Chorus   (01:36)

Bridge   (01:52)

G|---------------------------------------------------|
D|---------------------------------------------------|  (x3)
A|--3-3-3-3-3-3-3-3-3-3-3-3-3-3-3-3-3-3-6-6-6-8-8-8--|
E|---------------------------------------------------|

G|---------------------------------------------------|
D|-----------------------------------8-----7-----6---|   (x1)
A|--3-3-3-3-3-3-3-3-3-3-3-3-3-----6-----5-----4------|
E|---------------------------------------------------|


Intro x2 (02:08)

Verse x4 (02:24)

Chorus   (02:56)

Bridge (Ending)  (03:12)
Show more