• Song:

    Un Deseo

  • Artist:

    Cultura Profetica

  • Album:

    M.O.T.A.

Un Deseo Bass Tab

Esta es la primera tab que subo. una de mis canciones favoritas

Intro y verso

E-7-000---75--4-0024----------------4--|
A---------------------466-466-466------|
D--------------------------------------|
G--------------------------------------|

coro

224-224-----------7-4------|
-------------2-4h6---------|
---------------------------|
---------------------------|

224-224----------4----------|
-------------2------------2-|
----------------------------|
----------------------------|

224-224-----------4-7--------|
-------------2-4h6-----------|
-----------------------------|
-----------------------------|

----------------7---4-------|
446-446-----------------2---|
----------------------------|
----------------------------|


224-224-----------7-4--------|
-------------2-4h6-----------|
-----------------------------|
-----------------------------|

224-224-----------4---------|
-------------2------------2-|
----------------------------|
----------------------------|

224-224-----------4-7------|
-------------2-4h6---------|
---------------------------|
---------------------------|

----------------5------4----|
446-446---------------------|
----------------------------|
----------------------------|

224-224-----5-----4---------|
----------------------------|
----------------------------|
----------------------------|


veo mi instinto en mi espejo

0-----00----74-------------------333------33----0-111-1113-------8-|
---22-----6----4-444444-444-4s3-----4h6-----3---------------3s7-6--|
-------------------------------------------------------------------|
-------------------------------------------------------------------|

esta tonada q canto

0111113-------8-|
---------3s7-6--|
----------------|
----------------|

Espero sirva

http://www.myspace.com/culturaprofetica


Michael Montoya
Show more