• Song:

    Aerodynamic

  • Artist:

    Daft Punk

  • Album:

    Discovery

Title: Aerodynamic
Artist: Daft Punk
Transcribed by: Lefi

Good sound on a Mac with Amplitube (preset Heavy 1 with
more Gate, a little bit more depth in Chorus and autowah for fun)

Solo :(with your fingers !!!)

e|-------------------------------------------------|
B|-3----0----3----0------3-----0-----3-----0-------|
G|--------------------------1-----1-----1-----1----|
D|---4----4----4----4------------------------------|
A|-------------------------------------------------|
E|-------------------------------------------------|

e|-3----0----3----0--------------------------------|
B|------------------------5----2-----5-----2-------|
G|---4----4----4----4-------2-----2-----2-----2----|
D|-------------------------------------------------|
A|-------------------------------------------------|
E|-------------------------------------------------|
Show more