• Song:

    Da funk

  • Artist:

    Daft Punk

  • Album:

    Musique Vol.1 1993 - 20...

Standard Tuning

Main synth line:

|-------3-----------------------|
|-5--3-5-------3----------------|
|--------5--3-5-------5---------|
|---------------6--5-6-3--5-6---|

0:43 onwards Bass (with a couple of breaks)

|-------------------------|
|-------------------------|
|-------------------------|
|-3--3--3--3--3--3--3--3--|


2:26 synth line

|-------8------------------|
|-5-8-5---1-3-5------------|
|--------------------------|
|--------------------------|


Enjoy ;)
Show more