• Song:

    Da funk

  • Artist:

    Daft Punk

  • Album:

    Musique Vol.1 1993 - 20...

-------------------------------------------------------------------------------
			     DA FUNK - Daft Punk
-------------------------------------------------------------------------------

Tuning: Standard

Repeated many times throughout the song

e|--------6--------------------------------------|
B|-8--6-8----------6-----------------------------|
G|----------7--5-7----------7--------------------|
D|-------------------8--7-8---5--7-8-------------|
A|-----------------------------------------------|
E|-----------------------------------------------|
Show more