• Song:

    Digital Love

  • Artist:

    Daft Punk

  • Album:

    Musique Vol 1 (1993 - 2...

G:---------------------------------| Main riff
D:--00---4-0--00---4-0-------------|
A:-----4---------4-----------------|
E:---------------------------------|

Not sure about this part but it sounds right
At 2:15 in when the beat changes to a break almost it sounds like this and also when 
is a guitar solo

G:---------------------------------|
D:--00---------44-----2-2-2---00---|
A:-------44------------------------|
E:---------------------------------|
Show more