• Song:

    End Of Line

  • Artist:

    Daft Punk

  • Album:

    TRON: Legacy

this sounds a bit weird but its the closest i could come to it!


Intro

E----------------]
B----------------]    
G----------------]
D-7-7-7-7-0-0-5-5]
A----------------]
E----------------]

E---------2--]
B-0--0-5-3---]
G--2---------]
D---2--------]
A------------]
E------------]

Play as many times as you need to!!! Enjoy
Show more